Табулатура Black Sabbath | Behind The Wall Of Sleep  (2) гитара табулатуры уроки тексты песен Black Sabbath текст lyrics песня аккорды песни ноты нота электрогитара струна  
   А Б В Г Д Е Ж З И К Л М Н О П Р С Т У Ф Х Ч Ш Ы Э Ю Я       Разные песни
1-9 A B C D E F G H I J K L M N O P Q R S T U V W Y Z      Все исполнители in english

    



группа Black Sabbath, Табулатура песни Behind The Wall Of Sleep (2)

Продолжаем грести бабос на ботах в Telegram.
Только в этот раз есть вариант автоматизировать это дело, привлекая рефералов. Вы можете заработать если »

Группа: Black Sabbath - другие аккорды (243),   о группе (21 статей),   диски (20),   фотографии (152)
Табулатура песни: Behind The Wall Of Sleep (2)
Просмотров: 1057
Прислал: Sabbath (sabbath54@mail.ru)




    
=== The Eternal Idol's Black Sabbath Tablature
=== http://www.rdrop.com/~mjames/sabbath/
from - Michael James 
Wasp / Behind The Wall Of Sleep
Black Sabbath - Black Sabbath (1970)

|------------------------------------------------------------------
|------------------------------------------------------------------
|----8--8-8-8--------7--7-7-7----8--8-8-8--------7--7-7-7----------
|----9--9-9-9--------7--7-7-7----9--9-9-9--------7--7-7-7----------
|--9-9--9-9-9---(7)--7--7-7-7--9-9--9-9-9---(7)--7--7-7-7----------                          
|--7------------(7)------------7------------(7)--------------------

|------------------------------------------------------------------
|------------------------------------------------------------------
|-----------7-7-7p6-----------------------------------------(X 2)--
|--9----9-----------9-9p7----7-------9----9------7-----------------
|--9----9-----------------9-----9----9----9--7h9---97-7-7p5---5---
|--7----7----------------------------7----7------------------7-----
Verse:
|------------------------------------------------------------------
|------------------------------------------------------------------
|------------------------------------------------------------------
|------5h7p5-5h7-----------5h7p5------(X 2)------------------------
|--------------------------------5h7-------------------------------                   
|--5-8-----------------5-8-----------------------------------------
|------------------------
|------------------------
|------------------------
|------------------------
|-5--5----5h6p5----------                   
|-------8-------8-5------

|------------------------------7-----------
|------------------------------10^---------
|---------7~~~~~~~~~~~---------------------
|-7/9------------------7/9-----------------
|-7/9------------------7/9-----------------                

Продолжаем грести бабос на ботах в Telegram.
Только в этот раз есть вариант автоматизировать это дело, привлекая рефералов. Вы можете заработать если »

|-5/7------------------5/7----------------- Solo: |---------------7-------------------------------------------------- |-10^--10^--10^---10-7---7-10-7-7-/---------10-10-12-12^-12^-12^-- |----------------------9----------------9/11----------------------- |------------------------------------------------------------------ |------------------------------------------------------------------ |------------------------------------------------------------------ |-----------------7-----7---------------------------------- |12-10----------7---10^---10-7----------------------------- |------119-7-9----------------9^p7-9p7--7----------------- |--------------------------------------9---9p7-------7----- |----------------------------------------------9-7h9------- |---------------------------------------------------------- |-----7--------7--------------------------------------7---- |---7-----10^----10-7------------------10-----------7------ |-9^------------------9^p7-9-9^p7-9/11----119-7-9^-------- |---------------------------------------------------------- |---------------------------------------------------------- |---------------------------------------------------------- |---------------------------------------------------------- |-10p7--------------7-10p7--------------------------------- |------9-9p7---7-9^--------9-9p7--------------------------- |------------9-------------------9-9p7---7/9--------------- |--------------------------------------9------------------- |---------------------------------------------------------- |---------------------------------------------------------- |-----------------------------------------7---------------- |---------------------------------------------------------- |-6/76/76/76/76-------------6h7p6h7p6---7/9------------ |-------------------9--9-9-9------------------------------- |---------------------------------------------------------- back to first riff

www.rdrop.com/~mjames/sabbath/
лекарство в аптеке
список лекарств

арочный металлодетектор схема

systems24.ru








О сайтеАккордыХит-парадПоискУроки ФорумыИщу песню
ПрограммыСвежачок-сПодпискаСтатьи
Яндекс.Метрика