Табулатура W.A.S.P. | I`m Alive гитара табулатуры уроки тексты песен W.A.S.P. текст lyrics песня аккорды песни ноты нота электрогитара струна  
   А Б В Г Д Е Ж З И К Л М Н О П Р С Т У Ф Х Ч Ш Ы Э Ю Я       Разные песни
1-9 A B C D E F G H I J K L M N O P Q R S T U V W Y Z      Все исполнители

    



группа W.A.S.P., Табулатура песни I`m Alive

Группа: W.A.S.P. - другие аккорды (67),   о группе (12 статей),   диски (23),   фотографии (38)
Табулатура песни: I`m Alive
Просмотров: 962
Подобрал: Judas (killer@bk.ru)




    
#----------------------------------PLEASE NOTE---------------------------------#
#This file is the author's own work and represents their interpretation of the #
#song. You may only use this file for private study, scholarship, or research. #
#------------------------------------------------------------------------------##
Author/Artist: W.A.S.P.
Title: I'm Alive
Album: Inside The Electric Circus
Type: Guitar Tablature
Transcribed by: ANDREAS ЦHRN
Email: eva.ohrn@telia.com
#------------------------------------------------------------------------------#
#- Distributed by the site Chainsaw Charlie - http://wasptabs.planetaclix.pt  -#
#------------------------------------------------------------------------------#
IґM ALIVE
FROM INSIDE THE ELECTRIC CIRCUS ALBUM
BY W.A.S.P.
TABBED BY ANDREAS ЦHRN
NOTE: TUNE DOWN GUITAR TO Eb
INTRO:
GUITAR 1  X 4
E|----------------------------------------------------------------------------------|
B|----------------------------------------------------------------------------------|
G|----------------------------------------------------------------------------------|
D|----------------------------------------------------------------------------------|
A|-----------------------------------------------------------5--5-5-5--5-5-5--5-5-5-|
E|---2--2-2-2--2-2-2--2-2-2--2-2-2--2-2-2--2-2-2--2-2-2--2-2------------------------|
   | P.M................... ALL
E|--------------------------------------|
B|--------------------------------------|
G|--------------------------------------|
D|--------------------------------------|
A|---5-5-7--7-7-7--7-7-7--7-7-7--7-7----|
E|--------------------------------------|
   ................................. |
GUITAR 2
E|--------------------b-----b---b--b---------------------------b-----b--13----------|
B|--------------10-12-12-12-12~-12-12-12-10~-------------10-12-12-12-12~---14-12-14-|
G|---------9-11~------------------------------------9-11~---------------------------|
D|---11-11------------------------------------11-11---------------------------------|
A|----------------------------------------------------------------------------------|
E|----------------------------------------------------------------------------------|
E|-----------------------|
B|---12-10-12-9----------|
G|--------------9-11~----|
D|-----------------------|
A|-----------------------|
E|-----------------------|
VERSE:  X 2
E|----------------------------------------------------------------------------------|
B|----------------------------------------------------------------------------------|
G|----------------------------------------------------------------------------------|
D|----------------------------------------------------------------------------------|
A|-----------------------------------------------------------0--0-0-0--0-0-0--0-0-0-|
E|---2--2-2-2--2-2-2--2-2-2--2-2-2--2-2-2--2-2-2--2-2-2--2-2------------------------|
    | P.M..................... ALL
E|--------------------------------------|
B|--------------------------------------|
G|--------------------------------------|
D|--------------------------------------|
A|---0-0-2--2-2-2--2-2-2--2-2-2--2-2----|
E|--------------------------------------|
   ................................. |
BRIDGE:

Продолжаем грести бабос на ботах в Telegram.
Только в этот раз есть вариант автоматизировать это дело, привлекая рефералов. Вы можете заработать если »

E|---------------------------------------------------------------------------------| B|---------------------------------------------------------------------------------| G|---2--4----------------------------------------------------------2--4------------| D|---2--4----------------------------------------------------------2--4------------| A|---0--2----------------------------------------------------------0--2------------| E|---------2--2-2-2--2-2-2--2-2-2--2-2-2--2-2-2--2-2-2--2-2-2--2-2-------2--2-2-2--| | P.M.................................................. | | P.M....... E|----------------------------------------------------------------------------| B|----------------------------------------------------------------------------| G|--------------------------------------------------2--2--4--4--2--2----------| D|--------------------------------------------------2--2--4--4--2--2--4--4----| A|--------------------------------------------------0--0--2--2--0--0--4--4----| E|---2-2-2--2-2-2--2-2-2--2-2-2--2-2-2--2-2-2--2-2--------------------2--2----| .............................................. | CHORUS: E|---------------------------------------------------------| B|---------------------------------------------------------| G|-------------------2---4--------------------2---4--------| D|---4---4---4---4---2---4----4---4---4---4---2---4---4----| A|---4---4---4---4---0---2----4---4---4---4---0---2---4----| E|---2---2---2---2------------2---2---2---2-----------2----| VERSE: SAME AS ABOVE BRIDGE: SAME AS ABOVE CHORUS: SAME AS ABOVE BRIDGE: X 4 E|----------------------------------------------------------| B|----------------------------------------------------------| G|---4--6---------------------------------------------------| D|---4--6---------------------------------------------------| A|---2--4--4-4-4--4-4-4--4-4-4--4-4-4--4-4-4--4-4-4--4-4----| E|----------------------------------------------------------| | P.M......................................... | SOLO: E|----------------------------------------------------------------------------------| B|----------------------------------------------------------------------------------| G|---2---4---6--------------------------------------------------------2---4---6-----| D|---2---4---6--------------------------------------------------------2---4---6-----| A|---0---2---4--4-4-4--4-4-4--4-4-4--4-4-4--4-4-4--4-4-4--4-4-4--4-4--0---2---4--4-4| E|----------------------------------------------------------------------------------| | P.M................................................ | | P.M. E|----------------------------------------------------------------------------------| B|----------------------------------------------------------------------------------| G|-----------------------------------------------------2--2--4--4--------8--8--8-| D|-----------------------------------------------------2--2--4--4--4--4--8--8--8-| A|---4--4-4-4--4-4-4--4-4-4--4-4-4--4-4-4--4-4-4--4-4--0--0--2--2--4--4--6--6--6-| E|-----------------------------------------------------------------2--2-------------| ................................................. | E|-----------------| B|-----------------| G|---8--8--8----| D|---8--8--8----| A|---6--6--6----| E|-----------------| CHORUS: X 3 FADE AWAY SAME AS ABOVE








О сайтеАккордыХит-парадПоискУроки ФорумыИщу песню
ПрограммыСвежачок-сПодпискаСтатьи
Яндекс.Метрика