Табулатура W.A.S.P. | Inside The Electric Circus гитара табулатуры уроки тексты песен W.A.S.P. текст lyrics песня аккорды песни ноты нота электрогитара струна  
   А Б В Г Д Е Ж З И К Л М Н О П Р С Т У Ф Х Ч Ш Ы Э Ю Я       Разные песни
1-9 A B C D E F G H I J K L M N O P Q R S T U V W Y Z      Все исполнители

    



группа W.A.S.P., Табулатура песни Inside The Electric Circus

Группа: W.A.S.P. - другие аккорды (67),   о группе (12 статей),   диски (23),   фотографии (38)
Табулатура песни: Inside The Electric Circus
Просмотров: 1015
Подобрал: Judas (killer@bk.ru)




    
#----------------------------------PLEASE NOTE---------------------------------#
#This file is the author's own work and represents their interpretation of the #
#song. You may only use this file for private study, scholarship, or research. #
#------------------------------------------------------------------------------##
Author/Artist: W.A.S.P.
Title: Inside The Electric Circus
Album: Inside The Electric Circus
Type: Guitar Tablature
Transcribed by: ANDREAS ЦHRN
Email: eva.ohrn@telia.com
#------------------------------------------------------------------------------#
#- Distributed by the site Chainsaw Charlie - http://wasptabs.planetaclix.pt  -#
#------------------------------------------------------------------------------#
INSIDE THE ELETRIC CIRCUS
FROM INSIDE TE ELECTRIC CIRCUS ALBUM
BY W.A.S.P.
TABBED BY ANDREAS ЦHRN
NOTE:
TUNE GUITAR DOWN TO Eb
INTRO:
GUITAR 1
E|-----------------------------------------------------------------------|
B|-----------------------------------------------------------------------|
G|-----------------------------------------------------------------------|  X LOTS
D|-----------------------------------------------------------------------|
A|-----------------------------------------------------------------------|
E|---2-2-2-2-2-2-2-2-2-2-2-2-2-2-2-2-2-2-2-2-2-2-2-2-2-2-2-2-2-2-2-2-2-2-|
    | P.M................................................................
GUITAR 2
E|--------------------------------------------------------|
B|--------------------------------------------------------|
G|--------------------------------------------------------|
D|---4--4----4--4----4--4----4--4----4--4----4--4----4----|
A|---4--4----4--4----4--4----4--4----4--4----4--4----4----|
E|---2--2----2--2----2--2----2--2----2--2----2--2----2----|
E|--------------------------------------------------------|
B|--------------------------------------------------------|
G|--------------2-------------2-------------2-------------|
D|---4--2--4----2--4--2--4----2--4--2--4----2--4--2--4----|
A|---4--2--4----0--4--2--4----0--4--2--4----0--4--2--4----|
E|---2--0--2-------2--0--2-------2--0--2-------2--0--2----|
VERSE:
GUITAR 1
E|-----------------------------------------------------------------------------------|
B|-----------------------------------------------------------------------------------|
G|-----------------------------------------------------------------------------------|
D|-------------------------------------- X LOTS -------------------------------------|
A|-----------------------------------------------------------------------------------|
E|---2-2-2-2-2-2-2-2-2-2-2-2-2-2-2-2-2-2-2-2-2-2-2-2-2-2-2-2-2-2-2-2-2-2-2-2-2-2-2-2-|
    | P.M............................................................................
GUITAR 2
E|-----------------------------------------------------|
B|-----------------------------------------------------|
G|-----------------------------------------------------|
D|---2--4----2--4--2--4----2--4--2--4----2--4--2--4----|
A|---2--4----0--4--2--4----0--4--2--4----0--4--2--4----|
E|---0--2-------2--0--2-------2--0--2-------2--0--2----|
BOTH GUITARS
E|------------|

Продолжаем грести бабос на ботах в Telegram.
Только в этот раз есть вариант автоматизировать это дело, привлекая рефералов. Вы можете заработать если »

B|------------| G|------------| D|---2---2----| A|---2---2----| E|---0---0----| GUITAR 1 E|----------------------------------------------------------------------| B|----------------------------------------------------------------------| G|----------------------------------------------------------------------| D|----------------------------------------------------------------------| A|----------------------------------------------------------------------| E|---2-2-2-2-2-2-2-2-2-2-2-2-2-2-2-2-2-2-2-2-2-2-2-2-2-2-2-2-2-2-2-2----| | P.M............................................................| GUITAR 2 E|----------------------------| B|----------------------------| G|--------------2-------------| D|---4--2--4----2--4--2--4----| A|---4--2--4----0--4--2--4----| E|---2--0--2-------2--0--2----| BRIDGE: E|-----------------------| B|-----------------------| G|---2----2----4----4----| D|---2----2----4----4----| A|---0----0----2----2----| E|-----------------------| CHORUS: E|-------------------------------------------------------------------------| B|-------------------------------------------------------------------------| G|----------------------2----4--4--4-----------------------2----4--2--4----| D|---4--4----2--4--4----2----4--4--4----4--4----2--4--4----2----4--2--4----| A|---4--4----2--4--4----0----2--2--2----4--4----2--4--4----0----2--0--2----| E|---2--2----0--2--2--------------------2--2----0--2--2--------------------| VERSE: SAME AS ABOVE BRIDGE: SAME AS ABOVE CHORUS: SAME AS ABOVE SOLO: E|---------------------------------------------------------------------------------| B|---------------------------------------------------------------------------------| G|---6----4----2----6----6----4----2----6----6----4----2----6----6----4----2-------| D|---6----4----2----6----6----4----2----6----6----4----2----6----6----4----2----6--| A|---4----2----0----4----4----2----0----4----4----2----0----4----4----2----0----6--| E|------------------------------------------------------------------------------4--| CHORUS: SAME AS ABOVE OUTRO: E|-----------------------------------------------| B|-----------------------------------------------| G|---------------6-4-----------------------------| D|---4--4--4--4------7-6-4----------------4-4----| A|---4--4--4--4------------7-4-2----------4-4----| E|---2--2--2--2------------------5-4-2-0--2-2----|








О сайтеАккордыХит-парадПоискУроки ФорумыИщу песню
ПрограммыСвежачок-сПодпискаСтатьи
Яндекс.Метрика