Басовая табулатура W.A.S.P. | The Last Command гитара табулатуры уроки тексты песен W.A.S.P. текст lyrics песня аккорды песни ноты нота электрогитара струна  
   А Б В Г Д Е Ж З И К Л М Н О П Р С Т У Ф Х Ч Ш Ы Э Ю Я       Разные песни
1-9 A B C D E F G H I J K L M N O P Q R S T U V W Y Z      Все исполнители

    



группа W.A.S.P., Басовая табулатура песни The Last Command

Группа: W.A.S.P. - другие аккорды (67),   о группе (12 статей),   диски (23),   фотографии (38)
Басовая табулатура песни: The Last Command
Просмотров: 890
Подобрал: Judas (killer@bk.ru)




    
#----------------------------------PLEASE NOTE---------------------------------#
#This file is the author's own work and represents their interpretation of the #
#song. You may only use this file for private study, scholarship, or research. #
#------------------------------------------------------------------------------#
Author/Artist: W.A.S.P.
Title: The Last Command
Album: The Last Command
Type: Bass Tablature
Transcribed by: Artur Capela
Email: chainsawcharlie@clix.pt
#------------------------------------------------------------------------------#
#- Distributed by the site Chainsaw Charlie - http://wasptabs.planetaclix.pt  -#
#------------------------------------------------------------------------------#
              |      |         ___          ____       ____
              | |     | |       / _         /___     | __ 
               | _   /|      / /_        /__       |____/
               _/\_/ / /  /  ___    /   __  /  | __/ /
                \/\/ / / |_|__|_| / ____/ / | |     /
                 \/ \/   /  \|   \|  / ___/  / _|      /
                           THE LAST COMMAND (Bassline)
                             As recorded by W.A.S.P.
                     (From the 1985 Album THE LAST COMMAND)
Words and Music by Blackie Lawless
Transcribed by Artur Capela (chainsawcharlie@clix.pt)
Gtr I (E A D G) - 'Bass1'
 Intro
  Q=145
    F#5                    B5                 E5
 4/4
  Gtr I
  W            Q  Q  E E E E   +E  E Q  E E E E
|----------||----------------|------------------|
|----------||o---------------|------------------|
|----------||o---------------|------------------|
|----------||--2--2--2-2-2-2-|-(2)-2-2--2-2-2-2-|

                 F#5
  +E  E Q  E E E E   +E  E Q  E E Q   3x
|------------------|------------------||
|------------------|-----------------o||
|------------------|-----------------o||
|-(2)-2-2--2-2-2-2-|-(2)-2-2--2-2-2---||

              B5                 E5                 A5
  Q  Q  E E E E   +E  E Q  E E E E   +E  E Q  E E E  E
|---------------|------------------|-------------------|
|---------------|------------------|-------------------|
|---------------|------------------|-------------------|
|-2--2--2-2-2-2-|-(2)-2-2--2-2-2-2-|-(2)-2-2--2-2-2-/5-|

  +E  E Q  E E Q    E E Q  E E Q
|-----------------|------------------||
|-----------------|------------------||
|-----------------|------------------||
|-(5)-5-5--5-5-5--|-5-5-5--5-5-5----||

 Verse 1
  F#5                            E5
  Q  Q  E E Q    E E Q  E E Q    Q  Q  E E Q    Q  Q  E E Q
|--------------|---------------|--------------|---------------|
|--------------|---------------|--------------|---------------|
|--------------|---------------|--------------|---------------|
|-2--2--2-2-2--|-2-2-2--2-2-2--|-0--0--0-0-0--|-0--0--0-0-0---|

  F#5                            E5
  Q  Q  E E Q    E E Q  E E Q    Q  Q  E E Q    Q  Q  E E Q
|--------------|---------------|--------------|---------------|
|--------------|---------------|--------------|---------------|
|--------------|---------------|--------------|---------------|
|-2--2--2-2-2--|-2-2-2--2-2-2--|-0--0--0-0-0--|-0--0--0-0-0---|

  B5                             D5
   Q  Q  E E Q    Q  Q  E E Q    Q  Q  E E Q    Q  Q  E E Q
|---------------|--------------|--------------|---------------|
|---------------|--------------|--------------|---------------|
|---------------|--------------|-5--5--5-5-5--|-5--5--5-5-5---|
|-/7--7--7-7-7--|-7--7--7-7-7--|--------------|---------------|

  F#5                           E5          C#5                F#5
  Q  Q  E E Q    Q  Q  E E Q    Q  Q  E E E E   +E  E Q  E E E E
|--------------|--------------|---------------|-------------------||
|--------------|--------------|---------------|-------------------||
|--------------|--------------|-------------4-|-(4)-4-4--4-4-4----||
|-2--2--2-2-2--|-2--2--2-2-2--|-0--0--0-0-0---|----------------2--||

 Chorus
        A5  F#E5F#5       A5  F#E5F#B5                      A5  B5
  +E  E E E E E E E   E E E E E E E E   +E  E E E E E E E   E E E H    +E
|-------------------|-----------------|-------------------|-----------------|
|-------------------|-----------------|-------------------|-----------------|
|-------------------|-----------------|-------------------|-----------------|
|-(2)-2-2-2-2-2-2-2-|-2-2-2-2-2-2-2S7-|-(7)-7-7-7-7-7-7-7-|-5-5-7-7----(7)--|

  E5           B5                       F#5
  Q  E E E E E E   +E  E E E E E E E    E E E E E E E E   E E E E E E E E
|----------------|--------------------|-----------------|------------------|
|----------------|--------------------|-----------------|------------------|
|----------------|--------------------|-----------------|------------------|
|-0--0-0-0-0-0-7-|-(7)-7-7-7-7-7-7-7-|-2-2-2-2-2-2-2-2-|-2-2-2-2-2-2-2-2--|

        A5  F#E5F#5       A5  F#E5F#B5                      A5  B5
  +E  E E E E E E E   E E E E E E E E   +E  E E E E E E E   E E E H    +E
|-------------------|-----------------|-------------------|-----------------|
|-------------------|-----------------|-------------------|-----------------|
|-------------------|-----------------|-------------------|-----------------|
|-(2)-2-2-2-2-2-2-2-|-2-2-2-2-2-2-2S7-|-(7)-7-7-7-7-7-7-7-|-5-5-7-7----(7)--|

  E5           B5                  F#5
  Q  E E E E E E   +E  E E E E E E  E
|----------------|--------------------|
|----------------|--------------------|
|----------------|-----------------/9-|
|-0--0-0-0-0-0-7-|-(7)-7-7-7-7-7-7----|

              B5                 E5                 F#5
  Q  Q  E E E E   +E  E Q  E E E E   +E  E Q  E E E E   +E  E Q  E E Q
|---------------|------------------|------------------|------------------|
|---------------|------------------|------------------|------------------|
|-9--9--9-9-9-9-|-(9)-9-9--9-9-9-9-|-(9)-9-9--9-9-9-9-|-(9)-9-9--9-9-9---|
|---------------|------------------|------------------|------------------|

              B5                 E5                 F#5
  Q  Q  E E E E   +E  E Q  E E E E   +E  E Q  E E E E   +E  E Q  E E Q
|---------------|------------------|------------------|-------------------||
|---------------|------------------|------------------|-------------------||
|-9--9--9-9-9-9-|-(9)-9-9--9-9-9-9-|-(9)-9-9--9-9-9-9-|-(9)-9-9--9-9-9---||
|---------------|------------------|------------------|-------------------||

 Verse 2
  F#5                            E5
  Q  Q  E E Q    E E Q  E E Q    Q  Q  E E Q    Q  Q  E E Q
|--------------|---------------|--------------|---------------|
|--------------|---------------|--------------|---------------|
|--------------|---------------|--------------|---------------|
|-2--2--2-2-2--|-2-2-2--2-2-2--|-0--0--0-0-0--|-0--0--0-0-0---|

  F#5                           E5
  Q  Q  E E Q    Q  Q  E E Q    Q  Q  E E Q    E E E Q  E Q
|--------------|--------------|--------------|----------------|
|--------------|--------------|--------------|----------------|
|--------------|--------------|--------------|----------------|
|-2--2--2-2-2--|-2--2--2-2-2--|-0--0--0-0-0--|-0-0-0-0--0-0---|

  B5                             D5
   Q  Q  E E Q    Q  Q  E E Q    Q  Q  E E Q    Q  Q  E E Q
|---------------|--------------|--------------|---------------|
|---------------|--------------|--------------|---------------|
|---------------|--------------|-5--5--5-5-5--|-5--5--5-5-5---|
|-/7--7--7-7-7--|-7--7--7-7-7--|--------------|---------------|

  F#5                           E5          C#5                F#5
  Q  Q  E E Q    Q  Q  E E Q    Q  Q  E E E E   +E  E Q  E E E E
|--------------|--------------|---------------|-------------------||
|--------------|--------------|---------------|-------------------||
|--------------|--------------|-------------4-|-(4)-4-4--4-4-4----||
|-2--2--2-2-2--|-2--2--2-2-2--|-0--0--0-0-0---|----------------2--||

   Chorus
          A5  F#E5F#5       A5  F#E5F#B5                      A5  B5
    +E  E E E E E E E   E E E E E E E E   +E  E E E E E E E   E E E H    +E
||--------------------|-----------------|-------------------|----------------|
||o-------------------|-----------------|-------------------|----------------|
||o-------------------|-----------------|-------------------|----------------|
||--(2)-2-2-2-2-2-2-2-|-2-2-2-2-2-2-2S7-|-(7)-7-7-7-7-7-7-7-|-5-5-7-7----(7)-|

Продолжаем грести бабос на ботах в Telegram.
Только в этот раз есть вариант автоматизировать это дело, привлекая рефералов. Вы можете заработать если »

E5 B5 F#5 Q E E E E E E +E E E E E E E E E E E E E E E E E E E E E E E E |----------------|--------------------|-----------------|-------------------|| |----------------|--------------------|-----------------|------------------o|| |----------------|--------------------|-----------------|------------------o|| |-0--0-0-0-0-0-7-|-(7)-7-7-7-7-7-7-7-|-2-2-2-2-2-2-2-2-|-2-2-2-2-2-2-2-2---|| Verse 3 D5 F#5 Q Q E E Q E E Q E E Q Q Q E E Q E E E Q E Q |---------------|---------------|--------------|----------------| |---------------|---------------|--------------|----------------| |-/5--5--5-5-5--|-5-5-5--5-5-5--|--------------|----------------| |---------------|---------------|-2--2--2-2-2--|-2-2-2-2--2-2---| D5 C#5 Q Q E E Q E E Q E E Q Q Q E E Q E E E E E E E E |---------------|---------------|--------------|------------------|| |---------------|---------------|--------------|------------------|| |-/5--5--5-5-5--|-5-5-5--5-5-5--|-4--4--4-4-4--|-4-4-4-4-4-4-4-4--|| |---------------|---------------|--------------|------------------|| Guitar Solo +E E E E E E E E +E E E E E E E E ||--------------------|-------------------| ||o-------------------|-------------------| ||o-(4)-4-4-4-4-4-4-4-|-(4)-4-4-4-4-4-4-4-| ||--------------------|-------------------| +E E E E E E E E +E E E E E E E E 3x |-------------------|--------------------|| |-------------------|-------------------o|| |-(4)-4-4-4-4-4-4-4-|-(4)-4-4-4-4-4-4-4-o|| |-------------------|--------------------|| +E E E E E E E E +E E E E E E E E |-------------------|-------------------| |-------------------|-------------------| |-(4)-4-4-4-4-4-4-4-|-(4)-4-4-4-4-4-4-4-| |-------------------|-------------------| G#5 +E E E E E E E E +E E E E E E E E |-------------------|--------------------| |-------------------|--------------------| |-(4)-4-4-4-4-4-4-4-|-(4)-4-4-4-4-4-4----| |-------------------|-----------------4--| +E E E E E E E E Q Q Q Q |-------------------|-----------------------|| |-------------------|-----------------------|| |-------------------|-----------------------|| |-(4)-4-4-4-4-4-4-4-|-4--(4)--(4)--(4)--|| Interlude F#5 W +W W +H.. E |----------|------------|----------|---------------|| |----------|------------|----------|---------------|| |----------|------------|----------|---------------|| |-2--------|-(2)--------|-2--------|-(2)--------2--|| Chorus A5 F#E5F#5 A5 F#E5F#B5 A5 B5 +E E E E E E E E E E E E E E E E +E E E E E E E E E E E H +E ||--------------------|-----------------|-------------------|----------------| ||o-------------------|-----------------|-------------------|----------------| ||o-------------------|-----------------|-------------------|----------------| ||--(2)-2-2-2-2-2-2-2-|-2-2-2-2-2-2-2S7-|-(7)-7-7-7-7-7-7-7-|-5-5-7-7----(7)-| E5 B5 F#5 Q E E E E E E +E E E E E E E E E E E E E E E E E E E E E E E E |----------------|--------------------|-----------------|-------------------|| |----------------|--------------------|-----------------|------------------o|| |----------------|--------------------|-----------------|------------------o|| |-0--0-0-0-0-0-7-|-(7)-7-7-7-7-7-7-7-|-2-2-2-2-2-2-2-2-|-2-2-2-2-2-2-2-2---|| A5 F#E5F#5 A5 F#E5F#B5 A5 B5 +E E E E E E E E E E E E E E E E +E E E E E E E E E E E H +E |-------------------|-----------------|-------------------|-----------------| |-------------------|-----------------|-------------------|-----------------| |-------------------|-----------------|-------------------|-----------------| |-(2)-2-2-2-2-2-2-2-|-2-2-2-2-2-2-2S7-|-(7)-7-7-7-7-7-7-7-|-5-5-7-7----(7)--| E5 B5 F#5 Q E E E E E E +E E E E E E E E |----------------|--------------------| |----------------|--------------------| |----------------|-----------------/9-| |-0--0-0-0-0-0-7-|-(7)-7-7-7-7-7-7----| B5 E5 F#5 Q Q E E E E +E E Q E E E E +E E Q E E E E +E E Q E E Q |---------------|------------------|------------------|------------------| |---------------|------------------|------------------|------------------| |-9--9--9-9-9-9-|-(9)-9-9--9-9-9-9-|-(9)-9-9--9-9-9-9-|-(9)-9-9--9-9-9---| |---------------|------------------|------------------|------------------| B5 E5 F#5 Q Q E E E E +E E Q E E E E +E E Q E E E E +W |---------------|------------------|------------------|--------*| |---------------|------------------|------------------|--------*| |-9--9--9-9-9---|----------------7-|-(7)-7-7--7-7-7-9-|-(9)----*| |-------------7-|-(7)-7-7--7-7-7---|------------------|--------*| Duration Legend --------------- W - whole; H - half; Q - quarter; E - 8th; S - 16th; T - 32nd; X - 64th; a - acciaccatura + - note tied to previous; . - note dotted; .. - note double dotted Uncapitalized letters represent notes that are staccato (1/2 duration) Irregular groupings are notated above the duration line Duration letters will always appear directly above the note/fret number it represents the duration for. Duration letters with no fret number below them represent rests. Multi- bar rests are notated in the form Wxn, where n is the number of bars to rest for. Low melody durations appear below the staff Tablature Legend ---------------- h - hammer-on p - pull-off b - bend pb - pre-bend r - bend release (if no number after the r, then release immediately) / - slide into or out of (from/to "nowhere") s - legato slide S - shift slide - natural harmonic [n] - artificial harmonic n(n) - tapped harmonic ~ - vibrato tr - trill T - tap TP - trem. picking PM - palm muting n/ - tremolo bar dip; n = amount to dip n - tremolo bar down n/ - tremolo bar up /n - tremolo bar inverted dip = - hold bend; also acts as connecting device for hammers/pulls <> - volume swell (louder/softer) x - on rhythm slash represents muted slash o - on rhythm slash represents single note slash Misc Legend ----------- | - bar || - double bar ||o - repeat start o|| - repeat end *| - double bar (ending) : - bar (freetime) $ - Segno & - Coda Tempo markers - = BPM(8/16=s8/s16), where s8 = swing 8ths, s16 = swing 16ths *************************************************************************************** * Generated using Power Tab Editor by Brad Larsen - http://powertab.guitarnetwork.org * ***************************************************************************************








О сайтеАккордыХит-парадПоискУроки ФорумыИщу песню
ПрограммыСвежачок-сПодпискаСтатьи
Яндекс.Метрика