Табулатура W.A.S.P. | Cries In The Night гитара табулатуры уроки тексты песен W.A.S.P. текст lyrics песня аккорды песни ноты нота электрогитара струна  
   А Б В Г Д Е Ж З И К Л М Н О П Р С Т У Ф Х Ч Ш Ы Э Ю Я       Разные песни
1-9 A B C D E F G H I J K L M N O P Q R S T U V W Y Z      Все исполнители

    



группа W.A.S.P., Табулатура песни Cries In The Night

Группа: W.A.S.P. - другие аккорды (67),   о группе (12 статей),   диски (23),   фотографии (38)
Табулатура песни: Cries In The Night
Просмотров: 1069
Подобрал: Judas (killer@bk.ru)




    
#----------------------------------PLEASE NOTE---------------------------------#
#This file is the author's own work and represents their interpretation of the #
#song. You may only use this file for private study, scholarship, or research. #
#------------------------------------------------------------------------------##
Author/Artist: W.A.S.P.
Title: Cries In The Night
Album: The Last Command
Type: Guitar Tablature
Transcribed by: Christopher Jaques
Email: chrisj@alphalink.com.au, craigj@alphalink.com.au
#------------------------------------------------------------------------------#
#- Distributed by the site Chainsaw Charlie - http://wasptabs.planetaclix.pt  -#
#------------------------------------------------------------------------------#
CRIES IN THE NIGHT
W.A.S.P.
The Last Command
Tunning: 1/2 step down (added by Artur Capela, chainsawcharlie@clix.pt)
1-Eb
2-Bb
3-Gb
4-Db
5-Ab
6-Eb
Written by: Blackie Lawless
Copyright 1985 Sanctuary Music Inc.
Re-created by: Christopher Jaques
This tab was corrected by Artur Capela in order to be easier to read, the
tab on its own wasn't corrected.
       Intro
E--|-------------------------------------------------------------------
B--|-----------------8--7--8--10--8--7h8p7-----------------------------
G--|-----9~~~-------------------------------------9~~~--------7h9------
D--|-------------------------------------------------------------------
A--|-------------------------------------------------------------------
E--|-------------------------------------------------------------------

E----------------------------------------------------------12------12--
B---8--7--8--10--------8h10--------12~~~-----------------------12------
G----------------------------------------------------------------------
D----------------------------------------------------------------------
A----------------------------------------------------------------------
E----------------------------------------------------------------------

E---------------------------------------------15------15------17~~~----
B----12------------------------------------17-----17-------------------
G---------14--16--14p12--------14^-------------------------------------
D----------------------------------------------------------------------
A----------------------------------------------------------------------
E----------------------------------------------------------------------

E----------------------------------------------------------------------
B----------------------------------------------------------------------
G---12p11------------12p11------11--12p11---14p11--12------------------
D------------14~~~------------14---------------------------------------
A----------------------------------------------------------------------
E----------------------------------------------------------------------

E----------------------------------------------------------------------
B----------------------------------------------------------------------
G--12-p-11-------------------------------------------------------------
D-------------14~~~------------12--14~~~----------------12--14~~~------
A------------------------12--14-------------------12--14---------------
E----------------------------------------------------------------------

E----------------------------------------------------------------------
B----------------------------------------------------------------------
G----------------------------------------------------------------------
D---------------------14~~~-----------------12~~~-------------14~~~----
A------12--14--12----------------12--14------------12--14--------------
E----------------------------15----------------------------------------

E----------------------------------------------------------------------
B----------------------------------------------------------------------
G--------------12--11--------------------------------------------------
D------------------------14~~~-----------------------------------------
A------12--14----------------------------------------------------------
E----------------------------------------------------------------------

    Ooh, I'm sittin down ... continue pattern
E--------------2--------0-------|---------------------0--------|-------
B-----------------0--------0----|------------------3-----------|-------
G-------------------------------|--------0------2--------2-----|-------
D---------2----------2----------|-----2------0-----------------|-------
A------2------------------------|--3---------------------------|-------
E---0---------------------------|------------------------------|-------

E-------------2--------0-----|--------------------0------|-------------2----------0----
B----------------0--------0--|-----------------3---------|----------------0----------0-
G----------------------------|--------0-----2--------2---|-----------------------------
D--------2-----------2-------|-----2-----0---------------|----------2--------2---------
A-----2----------------------|--3------------------------|-------2---------------------
E--0-------------------------|---------------------------|---0-------------------------

E----------------------0-----|-----------2--------0-------|----
B-------------------3--------|--------------0--------0----|----
G----------0-----2--------2--|----------------------------|----
D--------2----0--------------|--------2--------2----------|----
A------3---------------------|-----2----------------------|----
E----------------------------|--0-------------------------|----

Продолжаем грести бабос на ботах в Telegram.
Только в этот раз есть вариант автоматизировать это дело, привлекая рефералов. Вы можете заработать если »

Cries in the night.... E---------------------0-----|--------------------0-----------0-----------0- B------------------3-----0--|--------------------0-----------0-----------0- G---------0-----2-----------|--------------------0-----------0-----------0- D------2-----0--------------|-------------2--2--------5--5--------7--7----- A---3-----------------------|-------------2--2--------5--5--------7--7----- E---------------------------|-------------0--0--------3--3--------5--5----- *Repeat for chorus* Solo :Chris Holmes E-----------------------||------------------------------|---------------------------- B-----------------------||------------------------------|---------------------------- G-----------------------||-----------------2--4~~~------|---------------------------- D------10-----10-------||--2-----4--5------------------|---------------------2-4~~-- A------10-----10-------||------------------------------|-----2-----4--5------------- E-------8------8-------||------------------------------|---------------------------- E--------------|----------------------------------------------|------------------ B--------------|------------------------------------------3---|------------------ G--------------|--------------------------2--4h5p4------------|--------4~~~------ D-----------0--|--2--------0--2h4h5---------------------------|------------------ A--------------|----------------------------------------------|------------------ E--------------|----------------------------------------------|------------------ E---------------------------|---------------------------------------------------- B---------------------------|---------------------------------------------------- G---2~~~--2~~~--------------|--------------0--2--0------------------------------- D-----------------------0-0-|--0--2--4--------------4--2--5p4--2--0-----2~~~----- A---------------------------|---------------------------------------------------- E---------------------------|---------------------------------------------------- E-------------------------------------|------------------------ B-------------------------------------|--15--12---------------- G-------------------2-----2--2^~~~----|------------14--12------ D--------5p2--4--5-----5--------------|------------------------ A-------------------------------------|------------------------ E-------------------------------------|------------------------ E------------------------------------------------------|------------------- B-----------------------------------15---12------------|--15--12----------- G---14--12-------------14--12----------------14~~~-----|-----------14--12-- D--------------14--12----------------------------------|------------------- A------------------------------------------------------|------------------- E------------------------------------------------------|------------------- E--------------------------|----------------------------------------------- B--------------------------|15----17--15------17--15------------17^--17~~~- G---14--12--16~~~----------|--------------16------------16----------------- D--------------------------|----------------------------------------------- A--------------------------|----------------------------------------------- E--------------------------|----------------------------------------------- E---|--17--15--14--15--17--15--14h15p14~~~------------------14--|--15~~~------------- B---|---------------------------------------------------17------|---------17-17~~~--- G---|-----------------------------------------------------------|-------------------- D---|-----------------------------------------------------------|-------------------- A---|-----------------------------------------------------------|-------------------- E---|-----------------------------------------------------------|-------------------- E--------14--15--|--17~~~--14--14~~~--|-------------------------------- B----------------|--------------------|-------------------------------- G----------------|--------------------|--12p11------------12p11-------- D----------------|--------------------|-----------14~~~------------14-- A----------------|--------------------|-------------------------------- E----------------|--------------------|-------------------------------- E-----------------|------------------------------------------------------|----------- B-----------------|------------------------------------------------------|----------- G------11--12p11--|--14p11--12p11------------------------------------11--|----------- D-----------------|----------------------14~~~----------------12h14------|----------- A-----------------|-------------------------------------12h14------------|----------- E-----------------|------------------------------------------------------|----------- Outro solo E---12^-----14^--|--15^------17^--||-----------------------|---------------- B---15------17---|--18-------20---||-----------------------|---------------- G----------------|----------------||-----------------2--4--|---------------- D----------------|----------------||----2-----4--5---------|---------------- A----------------|----------------||-----------------------|---2-----4--5--- E----------------|----------------||-----------------------|---------------- E-----------|--------------------------|-----------------------|---------- B-----------|--------------------------|-----------------------|---------- G-----------|--------------------------|-----------------------|---------- D---2--4----|-----5--5~~~--2--------5--|-----7-----4-----------|---------- A-----------|--------------------------|--------------------5--|---------- E-----------|--------------------------|-----------------------|---------- E-------------------|---------------------|------------------||---------- B-------------------|---------------------|------------------||---------- G---12~~~-------12--|--14~~~--14--12--14--|--16~~~~~~--------||---------- D----------14-------|---------------------|------------------||---------- A-------------------|---------------------|------------------||---------- E-------------------|---------------------|------------------||---------- Re-created by: Christopher Jaques comments, or corrections at: chrisj@alphalink.com.au craigj@alphalink.com.au








О сайтеАккордыХит-парадПоискУроки ФорумыИщу песню
ПрограммыСвежачок-сПодпискаСтатьи
Яндекс.Метрика