Табулатура W.A.S.P. | Widowmaker гитара табулатуры уроки тексты песен W.A.S.P. текст lyrics песня аккорды песни ноты нота электрогитара струна  
   А Б В Г Д Е Ж З И К Л М Н О П Р С Т У Ф Х Ч Ш Ы Э Ю Я       Разные песни
1-9 A B C D E F G H I J K L M N O P Q R S T U V W Y Z      Все исполнители

    



группа W.A.S.P., Табулатура песни Widowmaker

Группа: W.A.S.P. - другие аккорды (67),   о группе (12 статей),   диски (23),   фотографии (38)
Табулатура песни: Widowmaker
Просмотров: 915
Подобрал: Judas (killer@bk.ru)




    
#----------------------------------PLEASE NOTE---------------------------------#
#This file is the author's own work and represents their interpretation of the #
#song. You may only use this file for private study, scholarship, or research. #
#------------------------------------------------------------------------------##
Author/Artist: W.A.S.P.
Title: Widowmaker
Album: The Last Command
Type: Guitar Tablature
Transcribed by: Jani Ylikangas
Email: jylikangas@yahoo.com
#------------------------------------------------------------------------------#
#- Distributed by the site Chainsaw Charlie - http://wasptabs.planetaclix.pt  -#
#------------------------------------------------------------------------------#
W.A.S.P.
'Widowmaker'
from the album 'The Last Command'

transcribed by
  Jani Ylikangas (jylikangas@yahoo.com)
find more metal tablatures at
  http://venus.spaceports.com/~metaltab/

tune down half step
acoustic intro                       4x
e|--------------------------------------|--------------------------------|
b|--------------------------------------|--------------------------------|
g|o------------------------------------o|--------------------------------|
d|o----7-5-h7--7-----5-----------------o|----7---7-----------------------|
a|---5-------------8---7-h8--7--3s5-7---|--5---5-------------------------|
E|--------------------------------------|--------------------------------|
                                                                       4x
e|-----------------------------------------------------------------------|
b|-----------------------------------------------------------------------|
g|o---------------------------------------------------------------------o|
d|o---------------------------------------------------------------------o|
a|-----7-5-h7--7-----5---------------------------------------------------|
E|---5-------------8---7-h8--7--3s5-7------------------------------------|

main riff
e|-----------------------------------------------------------------------|
b|-----------------------------------------------------------------------|
g|o---------------------------------------------------------------------o|
d|o---------------------------------------------------------------------o|
a|-----7-5-7-----------5-------------------------------------------------|
E|---5-----------5-5-8---7-h8v--7--3s5-7---------------------------------|
                 * * 
verse guitar 1
e|-----------------------------------------------------------------------|
b|-----------------------------------------------------------------------|
g|-----------------------------------------------------------------------|
d|-----------------------------------------------------------------------|
a|---7-7-7-7-7-7-7-7-7-7-7-7-7-7-7-7-7-7-7-7-7-7-7-7-7-7-7-7-7-7-5-7-----|
E|---5-5-5-5-5-5-5-5-5-5-5-5-5-5-5-5-5-5-5-5-5-5-5-5-5-5-5-5-5-5-3-5-----|
     * * * * * * * * * * * * * * * * * * * * * * * * * * * * * 
e|-----------------------------------------------------------------------|
b|-----------------------------------------------------------------------|
g|-----------------------------------------------------------------------|
d|-----------------------------------------------------------------------|
a|---7-7-7-7-7-7-7-7-7-7-7-7-7-7-7-7-7-7-7-7-7-7-7-7-7-7-7-7-7-7---------|
E|---5-5-5-5-5-5-5-5-5-5-5-5-5-5-5-5-5-5-5-5-5-5-5-5-5-5-5-5-5-5-8p7-5-7-|

Продолжаем грести бабос на ботах в Telegram.
Только в этот раз есть вариант автоматизировать это дело, привлекая рефералов. Вы можете заработать если »

* * * * * * * * * * * * * * * * * * * * * * * * * * * * * e|-----------------------------------------------------------------------| b|-----------------------------------------------------------------------| g|-----------------------------------------------------------------------| d|-----------------------------------------------------------------------| a|---7---------------------------------------------------------7---------| E|---5---------------------------------------------------------5-8p7-5-7-| e|-----------------------------------------------------------------------| b|-----------------------------------------------------------------------| g|-----------------------------------------------------------------------| d|-----------------------------------------------------------------------| a|---7-------------------<--pickscrape-->--------------------------------| E|---5-------------------<-------------->--------------------------------| verse guitar 2 e|---5--------------3--------------1-------------5-----------------------| b|---5--------------3--------------1-------------5-----------------------| g|o--5--------------4--------------2-------------5----------------------o| d|o--7--------------5--------------3-------------7----------------------o| a|---7--------------5--------------3-------------7-----------------------| E|---5--------------3--------------1-------------5-----------------------| e|-------5--------------3--------------1-------------5-------------------| b|-------5--------------3--------------1-------------5-------------------| g|o------5--------------4--------------2-------------5------------------o| d|o------7--------------5--------------3-------------7------------------o| a|-----7--------------5--------------3-------------7---------------------| E|---5--------------3--------------1-------------5-----------------------| chorus e|-----------------------------------------------------------------------| b|-----------------------------------------------------------------------| g|o--2------5-5---7------2------5-5-------------------------------------o| d|o--2------5-5---7------2------5-5---5---------------------------------o| a|---0------3-3-0-5------0------3-3-0-5----------------------------------| E|------------------------------------3----------------------------------| chords in the middle of the solo e|-----------------------------------------------------------------------| b|-----------------------------------------------------------------------| g|-----------------------------------------------------------------------| d|--2-----------5------5-5-5-4-4-4-5-4-----------------------------------| a|--0-----------3------3-3-3-2-2-2-3-2-----------------------------------| E|-----------------------------------------------------------------------| ending chorus e|-----------------------------------------------------------------------| b|-----------------------------------------------------------------------| g|o-4------7-7---9------------------------------------------------------o| d|o-4------7-7---9------------------------------------------------------o| a|--2------5-5---7-------------------------------------------------------| E|-----------------------------------------------------------------------| ending e|-----------------------------------------------------------------------| b|-----------------------------------------------------------------------| g|-----------------------------------------------------------------------| d|--9-9-9s---------------------------------------------------------------| a|--9-9-9s---------------------------------------------------------------| E|--7-7-7s---------------------------------------------------------------|








О сайтеАккордыХит-парадПоискУроки ФорумыИщу песню
ПрограммыСвежачок-сПодпискаСтатьи
Яндекс.Метрика