Табулатура W.A.S.P. | Wild Child  (3) гитара табулатуры уроки тексты песен W.A.S.P. текст lyrics песня аккорды песни ноты нота электрогитара струна  
   А Б В Г Д Е Ж З И К Л М Н О П Р С Т У Ф Х Ч Ш Ы Э Ю Я       Разные песни
1-9 A B C D E F G H I J K L M N O P Q R S T U V W Y Z      Все исполнители

    



группа W.A.S.P., Табулатура песни Wild Child (3)

Группа: W.A.S.P. - другие аккорды (67),   о группе (12 статей),   диски (23),   фотографии (38)
Табулатура песни: Wild Child (3)
Просмотров: 1471
Подобрал: Judas (killer@bk.ru)




    
#----------------------------------PLEASE NOTE---------------------------------#
#This file is the author's own work and represents their interpretation of the #
#song. You may only use this file for private study, scholarship, or research. #
#------------------------------------------------------------------------------##
Author/Artist: W.A.S.P.
Title: Wild Child
Album: The Last Command
Type: Guitar Tablature
Transcribed by: Unknown
Email: Unknown
#------------------------------------------------------------------------------#
#- Distributed by the site Chainsaw Charlie - http://wasptabs.planetaclix.pt  -#
#------------------------------------------------------------------------------#
                                   WILD CHILD
                             As recorded by W.A.S.P.

Gtr I (E A D G B E) - 'Gtr. 1'
Gtr II (E A D G B E) - 'Gtr. 2'
Gtr III (E A D G B E) - 'Gtr. 3'
  Q=145
 4/4
  Gtr I
  E E E E E E E E   E E E E E E E E   E E E E E E E E   E E E E E E E E
|-----------------|-----------------|-----------------|------------------|
|-7---7---5---5-7-|---7-7---5---5---|-7---7---5---5-7-|---7-7---5---5----|
|---6---6---6-----|-6-----6---6---6-|---6---6---6-----|-6-----6---6---6--|
|-----------------|-----------------|-----------------|------------------|
|-----------------|-----------------|-----------------|------------------|
|-----------------|-----------------|-----------------|------------------|
|
| Gtr II
| W                 W                 W                 E E E E E E E E
|-----------------|-----------------|-----------------|------------------|
|-----------------|-----------------|-----------------|------------------|
|-----------------|-----------------|-----------------|------------------|
|-----------------|-----------------|-----------------|---------------4--|
|-----------------|-----------------|-----------------|---------------4--|
|-----------------|-----------------|-----------------|---------------2--|

  E E E E E E E E   E E E E E E E E   E E E E E E E E   E E E E E E E E
|-----------------|-----------------|-----------------|-----------------|
|-7---7---5---5-7-|---7-7---5---5---|-7---7---5---5-7-|---7-7---5---5---|
|---6---6---6-----|-6-----6---6---6-|---6---6---6-----|-6-----6---6---6-|
|-----------------|-----------------|-----------------|-----------------|
|-----------------|-----------------|-----------------|-----------------|
|-----------------|-----------------|-----------------|-----------------|
|
| W                 E E E E E E E E   W                 E E E E E E E E
|-----------------|-----------------|-----------------|-----------------|
|-----------------|-----------------|-----------------|-----------------|
|-----------------|---------------7-|-----------------|---------------4-|
|-----------------|---------------7-|-----------------|---------------4-|
|-----------------|---------------5-|-----------------|---------------2-|
|-----------------|-----------------|-----------------|-----------------|

  E E E E E E E E   E E E E E E E E   E E E E E E E E   E E E E E E E E
|-----------------|-----------------|-----------------|-----------------|
|-7---7---5---5-7-|---7-7---5---5---|-7---7---5---5-7-|---7-7---5---5---|
|---6---6---6-----|-6-----6---6---6-|---6---6---6-----|-6-----6---6---6-|
|-----------------|-----------------|-----------------|-----------------|
|-----------------|-----------------|-----------------|-----------------|
|-----------------|-----------------|-----------------|-----------------|
|
| W                 E E E E E E E E   W                 E E E E E E E E
|-----------------|-----------------|-----------------|-----------------|
|-----------------|-----------------|-----------------|-----------------|
|-----------------|-----------------|-----------------|-----------------|
|-----------------|---------------4-|-----------------|---------------4-|
|-----------------|---------------4-|-----------------|---------------4-|
|-----------------|---------------2-|-----------------|---------------2-|

  E E E E E E E E   E E E E E E E E   E E E E E E E E   E E E E E E E E
|-----------------|-----------------|-----------------|-----------------|
|-7---7---5---5-7-|---7-7---5---5---|-7---7---5---5-7-|---7-7---5---5---|
|---6---6---6-----|-6-----6---6---6-|---6---6---6-----|-6-----6---6---6-|
|-----------------|-----------------|-----------------|-----------------|
|-----------------|-----------------|-----------------|-----------------|
|-----------------|-----------------|-----------------|-----------------|
|
| W                 E E E E E E E E   W                 E E E E E E E E
|-----------------|-----------------|-----------------|-----------------|
|-----------------|-----------------|-----------------|-----------------|
|-----------------|---------------7-|-----------------|---------------4-|
|-----------------|---------------7-|-----------------|---------------4-|
|-----------------|---------------5-|-----------------|---------------2-|
|-----------------|-----------------|-----------------|-----------------|

  E E E E E E E E   E E E E E E E E   E E E E E E E E   E E E E E  E  E  E
|-----------------|-----------------|-----------------|---------------------|
|-7---7---5---5-7-|---7-7---5---5---|-7---7---5---5-7-|---7-7---5-----5-----|
|---6---6---6-----|-6-----6---6---6-|---6---6---6-----|-6-----6----6-----6--|
|-----------------|-----------------|-----------------|---------------------|
|-----------------|-----------------|-----------------|---------------------|
|-----------------|-----------------|-----------------|---------------------|
|
| W                 E E E E E E E E   W                 E E E E E +E  E +E
|-----------------|-----------------|-----------------|---------------------|
|-----------------|-----------------|-----------------|---------------------|
|-----------------|-----------------|-----------------|---------2-(2)-------|
|-----------------|---------------4-|-----------------|---------2-(2)-2-(2)-|
|-----------------|---------------4-|-----------------|---------0-(0)-2-(2)-|
|-----------------|---------------2-|-----------------|---------------0-(0)-|

  Gtr II
  W          +W           W          +H     +E  +E  +E  E
|----------|------------|----------|----------------------|
|----------|------------|----------|----------------------|
|----------|------------|-7--------|-(7)----(7)-(7)-(7)-4-|
|-4--------|-(4)--------|-7--------|-(7)----(7)-(7)-(7)-4-|
|-4--------|-(4)--------|-5--------|-(5)----(5)-(5)-(5)-2-|
|-2--------|-(2)--------|----------|----------------------|

  +W           +W           W          +H     E +E  E +E
|------------|------------|----------|--------------------|
|------------|------------|----------|--------------------|
|-(4)--------|-(4)--------|----------|--------7-(7)-9-(9)-|
|-(4)--------|-(4)--------|-4--------|-(4)----7-(7)-9-(9)-|
|-(2)--------|-(2)--------|-4--------|-(4)----5-(5)-7-(7)-|
|------------|------------|-2--------|-(2)----------------|

  W          +W           W          +W
|----------|------------|----------|--------|
|----------|------------|----------|--------|
|----------|------------|-7--------|-(7)----|
|-4--------|-(4)--------|-7--------|-(7)----|
|-4--------|-(4)--------|-5--------|-(5)----|

Продолжаем грести бабос на ботах в Telegram.
Только в этот раз есть вариант автоматизировать это дело, привлекая рефералов. Вы можете заработать если »

|-2--------|-(2)--------|----------|--------| W +W W +H Q Q |----------|------------|----------|--------------| |----------|------------|----------|--------------| |-4--------|-(4)--------|----------|--------7--9--| |-4--------|-(4)--------|-4--------|-(4)----7--9--| |-2--------|-(2)--------|-4--------|-(4)----5--7--| |----------|------------|-2--------|-(2)----------| H. E E +H. E E +W +H. E E |-------------|--------------|------------|--------------| |-------------|--------------|------------|--------------| |-7---------9-|-(9)----------|------------|------------7-| |-7---------9-|-(9)--------4-|-(4)--------|-(4)--------7-| |-5---------7-|-(7)--------4-|-(4)--------|-(4)--------5-| |-------------|------------2-|-(2)--------|-(2)----------| +H. E E +H. E E +E E Q E E E E +E E E E E E E E |--------------|--------------|------------------|-------------------| |--------------|--------------|------------------|-------------------| |-(7)--------9-|-(9)------9-6-|-(6)--------------|-------------------| |-(7)--------9-|-(9)------7-6-|-(6)-6-6--6-6-6-2-|-(2)-0-------------| |-(5)--------7-|-(7)------7-4-|-(4)-4-4--4-4-4---|-------4-2-0-----4-| |--------------|--------------|------------------|-------------4-0-2-| +E E E +E E E E E +E E E +E E E E +E H. E E +H. E E |---------------------|-----------------------|-------------|--------------| |---------------------|-----------------------|-------------|--------------| |---------------------|-----------------------|-7---------9-|-(9)----------| |---------------------|-----------------7-(7)-|-7---------9-|-(9)--------4-| |-(4)-4-4-(4)-----0-4-|-(4)-4-4-(4)-----7-(7)-|-5---------7-|-(7)--------4-| |-(2)-2-2-(2)-0-2---2-|-(2)-2-2-(2)-0-2-5-(5)-|-------------|------------2-| +E E E E E E E E +E E E E E E E +E H. E E +H. E E |-------------------|---------------------|-------------|--------------| |-------------------|---------------------|-------------|--------------| |-------------------|---------------------|-7-----------|--------------| |-(4)-4-4-4---------|---------------7-(7)-|-7---------2-|-(2)----------| |-(4)-4-4-4-----0-4-|-(4)-4-4-4-----7-(7)-|-5---------2-|-(2)------0-4-| |-(2)-2-2-2-0-2---2-|-(2)-2-2-2-0-2-5-(5)-|-----------0-|-(0)--------2-| +E E E +E E E E E +E E E +E E E E +E H. E E +H. E E |---------------------|-----------------------|-------------|--------------| |---------------------|-----------------------|-------------|--------------| |---------------------|-----------------------|-7---------9-|-(9)----------| |---------------------|-----------------7-(7)-|-7---------9-|-(9)--------4-| |-(4)-4-4-(4)-----0-4-|-(4)-4-4-(4)-----7-(7)-|-5---------7-|-(7)--------4-| |-(2)-2-2-(2)-0-2---2-|-(2)-2-2-(2)-0-2-5-(5)-|-------------|------------2-| +E E E E E E E E +E E E E E E E +E H. E E +H. E E |-------------------|---------------------|-------------|--------------| |-------------------|---------------------|-------------|--------------| |-------------------|---------------------|-7-----------|--------------| |-(4)-4-4-4---------|---------------7-(7)-|-7---------2-|-(2)--------4-| |-(4)-4-4-4-----0-4-|-(4)-4-4-4-----7-(7)-|-5---------2-|-(2)------0-4-| |-(2)-2-2-2-0-2---2-|-(2)-2-2-2-0-2-5-(5)-|-----------0-|-(0)--------2-| +W +H. E E +E +E E E E E E E +S +S E E +E H |------------|-----------------|------------------------|----------------------| |------------|-----------------|------------------------|----------------------| |------------|------------4b6==|=(4)-(4)r-2---4-2-4-4b6r|=(4)-(4)-2------------| |-(4)--------|-(4)-------------|------------4-----------|-----------4-(4)------| |-(4)--------|-(4)-------------|------------------------|----------------------| |-(2)--------|-(2)-------------|------------------------|----------------------| W +W W +H +E +E +E E |----------|------------|----------|----------------------| |----------|------------|----------|----------------------| |----------|------------|-7--------|-(7)----(7)-(7)-(7)-4-| |-4--------|-(4)--------|-7--------|-(7)----(7)-(7)-(7)-4-| |-4--------|-(4)--------|-5--------|-(5)----(5)-(5)-(5)-2-| |-2--------|-(2)--------|----------|----------------------| +W +W W +H E +E E +E |------------|------------|----------|--------------------| |------------|------------|----------|--------------------| |-(4)--------|-(4)--------|----------|--------7-(7)-9-(9)-| |-(4)--------|-(4)--------|-4--------|-(4)----7-(7)-9-(9)-| |-(2)--------|-(2)--------|-4--------|-(4)----5-(5)-7-(7)-| |------------|------------|-2--------|-(2)----------------| W +W W +W |----------|------------|----------|--------| |----------|------------|----------|--------| |----------|------------|-7--------|-(7)----| |-4--------|-(4)--------|-7--------|-(7)----| |-4--------|-(4)--------|-5--------|-(5)----| |-2--------|-(2)--------|----------|--------| W +W W +H E +E E +E |----------|------------|----------|--------------------| |----------|------------|----------|--------------------| |-4--------|-(4)--------|----------|--------7-(7)-9-(9)-| |-4--------|-(4)--------|-4--------|-(4)----7-(7)-9-(9)-| |-2--------|-(2)--------|-4--------|-(4)----5-(5)-7-(7)-| |----------|------------|-2--------|-(2)----------------| E +E +E +E +E +E +E E +H +E +E +E E |-----------------------------|----------------------| |-----------------------------|----------------------| |-7-(7)-(7)-(7)-(7)-(7)-(7)-9-|-(9)----(9)-(9)-(9)---| |-7-(7)-(7)-(7)-(7)-(7)-(7)-9-|-(9)----(9)-(9)-(9)-4-| |-5-(5)-(5)-(5)-(5)-(5)-(5)-7-|-(7)----(7)-(7)-(7)-4-| |-----------------------------|--------------------2-| +W +H +E +E +E E |------------|----------------------| |------------|----------------------| |------------|--------------------7-| |-(4)--------|-(4)----(4)-(4)-(4)-7-| |-(4)--------|-(4)----(4)-(4)-(4)-5-| |-(2)--------|-(2)----(2)-(2)-(2)---| +H +E +E +E E +H +E +E E E |----------------------|--------------------| |----------------------|--------------------| |-(7)----(7)-(7)-(7)-9-|-(9)----(9)-(9)-9-6-| |-(7)----(7)-(7)-(7)-9-|-(9)----(9)-(9)-7-6-| |-(5)----(5)-(5)-(5)-7-|-(7)----(7)-(7)-7-4-| |----------------------|--------------------| +E E E +E E E E E +E E E E E E E E |---------------------|-------------------| |---------------------|-------------------| |-(6)-----------------|-------------------| |-(6)-6-6-(6)-6-6-6-2








О сайтеАккордыХит-парадПоискУроки ФорумыИщу песню
ПрограммыСвежачок-сПодпискаСтатьи
Яндекс.Метрика