Табулатура W.A.S.P. | Wild Child гитара табулатуры уроки тексты песен W.A.S.P. текст lyrics песня аккорды песни ноты нота электрогитара струна  
   А Б В Г Д Е Ж З И К Л М Н О П Р С Т У Ф Х Ч Ш Ы Э Ю Я       Разные песни
1-9 A B C D E F G H I J K L M N O P Q R S T U V W Y Z      Все исполнители

    



группа W.A.S.P., Табулатура песни Wild Child

Группа: W.A.S.P. - другие аккорды (67),   о группе (12 статей),   диски (23),   фотографии (38)
Табулатура песни: Wild Child
Просмотров: 1286
Подобрал: Judas (killer@bk.ru)




    
#----------------------------------PLEASE NOTE---------------------------------#
#This file is the author's own work and represents their interpretation of the #
#song. You may only use this file for private study, scholarship, or research. #
#------------------------------------------------------------------------------##
Author/Artist: W.A.S.P.
Title: Wild Child
Album: The Last Command
Type: Guitar Tablature
Transcribed by: Unknown
Email: Unknown
#------------------------------------------------------------------------------#
#- Distributed by the site Chainsaw Charlie - http://wasptabs.planetaclix.pt  -#
#------------------------------------------------------------------------------#
Wild Child
W.A.S.P.
This tab was exported from a Guitar Pro tab found through http://www.guitar-pro.com
that didn't mention any author.
    Gtr1
Eb||--------------------------|--------------------------|
Bb||--7-----7-----5-----5--7--|-----7--7-----5-----5-----|
Gb||-----6-----6-----6--------|--6--------6-----6-----6--|
Db||--------------------------|--------------------------|
Ab||--------------------------|--------------------------|
Eb||--------------------------|--------------------------|
  ||Gtr2
Eb||--------------------------|--------------------------|
Bb||--------------------------|--------------------------|
Gb||--------------------------|--------------------------|
Db||--------------------------|--------------------------|
Ab||--------------------------|--------------------------|
Eb||--------------------------|--------------------------|

|--------------------------|--------------------------|
|--7-----7-----5-----5--7--|-----7--7-----5-----5-----|
|-----6-----6-----6--------|--6--------6-----6-----6--|
|--------------------------|--------------------------|
|--------------------------|--------------------------|
|--------------------------|--------------------------|
|
|--------------------------|--------------------------|
|--------------------------|--------------------------|
|--------------------------|--------------------------|
|--------------------------|-----------------------4--|
|--------------------------|-----------------------4--|
|--------------------------|-----------------------2--|

|--------------------------|--------------------------|
|--7-----7-----5-----5--7--|-----7--7-----5-----5-----|
|-----6-----6-----6--------|--6--------6-----6-----6--|
|--------------------------|--------------------------|
|--------------------------|--------------------------|
|--------------------------|--------------------------|
| 
|--------------------------|--------------------------|
|--------------------------|--------------------------|
|--------------------------|-----------------------7--|
|--------------------------|-----------------------7--|
|--------------------------|-----------------------5--|
|--------------------------|--------------------------|

|--------------------------|--------------------------|
|--7-----7-----5-----5--7--|-----7--7-----5-----5-----|
|-----6-----6-----6--------|--6--------6-----6-----6--|
|--------------------------|--------------------------|
|--------------------------|--------------------------|
|--------------------------|--------------------------|
| 
|--------------------------|--------------------------|
|--------------------------|--------------------------|
|--------------------------|-----------------------4--|
|--------------------------|-----------------------4--|
|--------------------------|-----------------------2--|
|--------------------------|--------------------------|

|--------------------------|--------------------------|
|--7-----7-----5-----5--7--|-----7--7-----5-----5-----|
|-----6-----6-----6--------|--6--------6-----6-----6--|
|--------------------------|--------------------------|
|--------------------------|--------------------------|
|--------------------------|--------------------------|
| 
|--------------------------|--------------------------|
|--------------------------|--------------------------|
|--------------------------|--------------------------|
|--------------------------|-----------------------4--|
|--------------------------|-----------------------4--|
|--------------------------|-----------------------2--|

|--------------------------|--------------------------|
|--7-----7-----5-----5--7--|-----7--7-----5-----5-----|
|-----6-----6-----6--------|--6--------6-----6-----6--|
|--------------------------|--------------------------|
|--------------------------|--------------------------|
|--------------------------|--------------------------|
| 
|--------------------------|--------------------------|
|--------------------------|--------------------------|
|--------------------------|--------------------------|
|--------------------------|-----------------------4--|
|--------------------------|-----------------------4--|
|--------------------------|-----------------------2--|

|--------------------------|--------------------------|
|--7-----7-----5-----5--7--|-----7--7-----5-----5-----|
|-----6-----6-----6--------|--6--------6-----6-----6--|
|--------------------------|--------------------------|
|--------------------------|--------------------------|
|--------------------------|--------------------------|
|
|--------------------------|--------------------------|
|--------------------------|--------------------------|
|--------------------------|-----------------------7--|
|--------------------------|-----------------------7--|
|--------------------------|-----------------------5--|
|--------------------------|--------------------------|

|--------------------------|--------------------------|
|--7-----7-----5-----5--7--|-----7--7-----5-----5-----|
|-----6-----6-----6--------|--6--------6-----6-----6--|
|--------------------------|--------------------------|
|--------------------------|--------------------------|
|--------------------------|--------------------------|
| 
|--------------------------|--------------------------|
|--------------------------|--------------------------|
|--------------------------|-----------------------4--|
|--------------------------|-----------------------4--|
|--------------------------|-----------------------2--|
|--------------------------|--------------------------|

|--------------------------|--------------------------|
|--7-----7-----5-----5--7--|-----7--7-----5-----5-----|
|-----6-----6-----6--------|--6--------6-----6-----6--|
|--------------------------|--------------------------|
|--------------------------|--------------------------|
|--------------------------|--------------------------|
| 
|--------------------------|--------------------------|
|--------------------------|--------------------------|
|--------------------------|--------------------------|
|--------------------------|-----------------------4--|
|--------------------------|-----------------------4--|
|--------------------------|-----------------------2--|

|--------------------------|--------------------------|
|--7-----7-----5-----5--7--|-----7--7-----5-----5-----|
|-----6-----6-----6--------|--6--------6-----6-----6--|
|--------------------------|--------------------------|
|--------------------------|--------------------------|
|--------------------------|--------------------------|
| 
|--------------------------|--------------------------|
|--------------------------|--------------------------|
|--------------------------|--------------2-----------|
|--------------------------|--------------2-----2-----|
|--------------------------|--------------0-----2-----|
|--------------------------|--------------------0-----|

 Gtr2
|-------------------|------------------|-------------------|-------------------|
|-------------------|------------------|-------------------|-------------------|
|-------------------|------------------|--7----------------|----------------4--|
|--4----------------|------------------|--7----------------|----------------4--|
|--4----------------|------------------|--5----------------|----------------2--|
|--2----------------|------------------|-------------------|-------------------|

|------------------|------------------|-------------------|--------------------|
|------------------|------------------|-------------------|--------------------|
|------------------|------------------|-------------------|----------7----9----|
|------------------|------------------|--4----------------|----------7----9----|
|------------------|------------------|--4----------------|----------5----7----|
|------------------|------------------|--2----------------|--------------------|

|-------------------|------------------|-------------------|------------------|
|-------------------|------------------|-------------------|------------------|
|-------------------|------------------|--7----------------|------------------|
|--4----------------|------------------|--7----------------|------------------|
|--4----------------|------------------|--5----------------|------------------|
|--2----------------|------------------|-------------------|------------------|

|-------------------|------------------|-------------------|--------------------|
|-------------------|------------------|-------------------|--------------------|
|--4----------------|------------------|-------------------|----------7----9----|
|--4----------------|------------------|--4----------------|----------7----9----|
|--2----------------|------------------|--4----------------|----------5----7----|
|-------------------|------------------|--2----------------|--------------------|

|--------------------|-------------------|------------------|-------------------|
|--------------------|-------------------|------------------|-------------------|
|--7--------------9--|-------------------|------------------|----------------7--|
|--7--------------9--|----------------4--|------------------|----------------7--|
|--5--------------7--|----------------4--|------------------|----------------5--|
|--------------------|----------------2--|------------------|-------------------|

|-------------------|--------------------|------------------------|
|-------------------|--------------------|------------------------|
|----------------9--|--------------9--6--|------------------------|
|----------------9--|--------------7--6--|----6--6----6--6--6--2--|
|----------------7--|--------------7--4--|----4--4----4--4--4-----|
|-------------------|--------------------|------------------------|

|-------------------------|------------------------|-----------------------|
|-------------------------|------------------------|-----------------------|
|-------------------------|------------------------|-----------------------|
|----0--------------------|------------------------|------------------7----|
|-------4--2--0--------4--|----4--4----------0--4--|----4--4----------7----|
|----------------4--0--2--|----2--2----0--2-----2--|----2--2----0--2--5----|

|--------------------|-------------------|-------------------------|
|--------------------|-------------------|-------------------------|
|--7--------------9--|-------------------|-------------------------|
|--7--------------9--|----------------4--|----4--4--4--------------|
|--5--------------7--|----------------4--|----4--4--4--------0--4--|
|--------------------|----------------2--|----2--2--2--0--2-----2--|

|------------------------|--------------------|--------------------|
|------------------------|--------------------|--------------------|
|------------------------|--7-----------------|--------------------|
|-------------------7----|--7--------------2--|--------------------|
|----4--4--4--------7----|--5--------------2--|--------------0--4--|
|----2--2--2--0--2--5----|-----------------0--|-----------------2--|

|------------------------|-----------------------|--------------------|
|------------------------|-----------------------|--------------------|
|------------------------|-----------------------|--7--------------9--|
|------------------------|------------------7----|--7--------------9--|
|----4--4----------0--4--|----4--4----------7----|--5--------------7--|
|----2--2----0--2-----2--|----2--2----0--2--5----|--------------------|

|-------------------|-------------------------|------------------------|
|-------------------|-------------------------|------------------------|
|-------------------|-------------------------|------------------------|
|----------------4--|----4--4--4--------------|-------------------7----|
|----------------4--|----4--4--4--------0--4--|----4--4--4--------7----|
|----------------2--|----2--2--2--0--2-----2--|----2--2--2--0--2--5----|

|--------------------|--------------------|------------------|
|--------------------|--------------------|------------------|
|--7-----------------|--------------------|------------------|
|--7--------------2--|-----------------4--|------------------|
|--5--------------2--|--------------0--4--|------------------|
|-----------------0--|-----------------2--|------------------|

|-------------------|------------------------|--------------------|
|-------------------|------------------------|--------------------|
|----------------4b-|------2-----4--2--4--4r-|----2---------------|
|-------------------|---------4--------------|-------4------------|
|-------------------|------------------------|--------------------|
|-------------------|------------------------|--------------------|

|-------------------|------------------|-------------------|-------------------|
|-------------------|------------------|-------------------|-------------------|
|-------------------|------------------|--7----------------|----------------4--|
|--4----------------|------------------|--7----------------|----------------4--|
|--4----------------|------------------|--5----------------|----------------2--|
|--2----------------|------------------|-------------------|-------------------|

|------------------|------------------|-------------------|--------------------|
|------------------|------------------|-------------------|--------------------|
|------------------|------------------|-------------------|----------7----9----|
|------------------|------------------|--4----------------|----------7----9----|
|------------------|------------------|--4----------------|----------5----7----|
|------------------|------------------|--2----------------|--------------------|

|-------------------|------------------|-------------------|------------------|
|-------------------|------------------|-------------------|------------------|
|-------------------|------------------|--7----------------|------------------|
|--4----------------|------------------|--7----------------|------------------|
|--4----------------|------------------|--5----------------|------------------|
|--2----------------|------------------|-------------------|------------------|

|-------------------|------------------|-------------------|--------------------|
|-------------------|------------------|-------------------|--------------------|
|--4----------------|------------------|-------------------|----------7----9----|
|--4----------------|------------------|--4----------------|----------7----9----|
|--2----------------|------------------|--4----------------|----------5----7----|
|-------------------|------------------|--2----------------|--------------------|

|--------------------|-------------------|------------------|-------------------|
|--------------------|-------------------|------------------|-------------------|
|--7--------------9--|-------------------|------------------|----------------7--|
|--7--------------9--|----------------4--|------------------|----------------7--|
|--5--------------7--|----------------4--|------------------|----------------5--|
|--------------------|----------------2--|------------------|-------------------|

Продолжаем грести бабос на ботах в Telegram.
Только в этот раз есть вариант автоматизировать это дело, привлекая рефералов. Вы можете заработать если »

|-------------------|--------------------|------------------------| |-------------------|--------------------|------------------------| |----------------9--|--------------9--6--|------------------------| |----------------9--|--------------7--6--|----6--6----6--6--6--2--| |----------------7--|--------------7--4--|----4--4----4--4--4-----| |-------------------|--------------------|------------------------| |-------------------------|------------------------|-----------------------| |-------------------------|------------------------|-----------------------| |-------------------------|------------------------|-----------------------| |----0--------------------|------------------------|------------------7----| |-------4--2--0--------4--|----4--4----------0--4--|----4--4----------7----| |----------------4--0--2--|----2--2----0--2-----2--|----2--2----0--2--5----| |--------------------|-------------------|-------------------------| |--------------------|-------------------|-------------------------| |--7--------------9--|-------------------|-------------------------| |--7--------------9--|----------------4--|----4--4--4--------------| |--5--------------7--|----------------4--|----4--4--4--------0--4--| |--------------------|----------------2--|----2--2--2--0--2-----2--| |------------------------|--------------------|--------------------| |------------------------|--------------------|--------------------| |------------------------|--7-----------------|--------------------| |-------------------7----|--7--------------2--|--------------------| |----4--4--4--------7----|--5--------------2--|--------------0--4--| |----2--2--2--0--2--5----|-----------------0--|-----------------2--| |------------------------|-----------------------|--------------------| |------------------------|-----------------------|--------------------| |------------------------|-----------------------|--7--------------9--| |------------------------|------------------7----|--7--------------9--| |----4--4----------0--4--|----4--4----------7----|--5--------------7--| |----2--2----0--2-----2--|----2--2----0--2--5----|--------------------| |-------------------|-------------------------|------------------------| |-------------------|-------------------------|------------------------| |-------------------|-------------------------|------------------------| |----------------4--|----4--4--4--------------|-------------------7----| |----------------4--|----4--4--4--------0--4--|----4--4--4--------7----| |----------------2--|----2--2--2--0--2-----2--|----2--2--2--0--2--5----| |--------------------|--------------------|------------------| |--------------------|--------------------|------------------| |--7-----------------|--------------------|------------------| |--7--------------2--|-----------------4--|------------------| |--5--------------2--|--------------0--4--|------------------| |-----------------0--|-----------------2--|------------------| |-------------------|------------------|-------------------|------------------| |-------------------|------------------|-------------------|------------------| |----------------2--|------------------|-------------------|------------------| |----------------2--|------------------|----------------4--|------------------| |----------------0--|------------------|----------------4--|------------------| |-------------------|------------------|----------------2--|------------------| |-------------------|------------------|-------------------|------------------| |----------------2--|------------------|-------------------|------------------| |----------------2--|------------------|-------------------|------------------| |----------------2--|------------------|----------------4--|------------------| |-------------------|------------------|----------------4--|------------------| |-------------------|------------------|----------------2--|------------------| Solo: Gtr2 |-------------------|------------------|---------------------| |-------------------|------------------|------------------5--| |----------------4b-|------------------|--4r-----------2-----| |-------------------|------------------|---------------------| |-------------------|------------------|---------------------| |-------------------|------------------|---------------------| |Gtr1 |-------------------|------------------|---------------------| |-------------------|------------------|---------------------| |----------------2--|------------------|------------------4--| |----------------2--|------------------|------------------4--| |----------------0--|------------------|------------------2--| |-------------------|------------------|---------------------| |--------------------------|------------------|-------2-----2--------------| |--------3h2-3h2h0---------|------------------|----------------------3--5--| |------------------2h1--2--|------------------|----4-----4-----4--4--------| |--------------------------|------------------|----------------------------| |--------------------------|------------------|----------------------------| |--------------------------|------------------|----------------------------| | |--------------------------|------------------|----------------------------| |--------------------------|------------------|----------------------------| |--------------------------|---------------7--|----------------------------| |--------------------------|---------------7--|----------------------2-----| |--------------------------|---------------5--|----------------------2-----| |--------------------------|------------------|----------------------0-----| |-----2--4--5h-7h5h7h-5h7--5h4h5h4--| |--5--------------------------------| |-----------------------------------| |-----------------------------------| |-----------------------------------| |-----------------------------------| | |-----------------------------------| |-----------------------------------| |-----------------------------------| |-----------------------------4-----| |-----------------------------4-----| |-----------------------------2-----| |--7h5h4h5h4-2-----------2h--------------------|---------------------------| |---------------5h4h5h3----5h4h5h4--2h---------|--2------------------------| |-------------------------------------4h2h4h2--|----4h2h4h3h2--------------| |----------------------------------------------|--------------4/-----------| |----------------------------------------------|---------------------------| |----------------------------------------------|---------------------------| | |----------------------------------------------|---------------------------| |----------------------------------------------|---------------------------| |----------------------------------------------|------------------------2--| |----------------------------------------------|------------------------2--| |----------------------------------------------|------------------------0--| |----------------------------------------------|---------------------------| |----------------2--4--5--|--5r--4-5------------| |-------------2-----------|---------------------| |-------1--2--------------|---------------------| |----4--------------------|---------------------| |-------------------------|---------------------| |-------------------------|---------------------| | |-------------------------|---------------------| |-------------------------|---------------------| |-------------------------|------------------4--| |-------------------------|------------------4--| |-------------------------|------------------2--| |-------------------------|---------------------| |--------------------14--16--17--|--17r--14-17--------0--19--| |----------------14--------------|---------------------------| |--------13--14------------------|---------------------------| |----16--------------------------|---------------------------| |--------------------------------|---------------------------| |--------------------------------|---------------------------| | |--------------------------------|---------------------------| |--------------------------------|---------------------------| |--------------------------------|------------------------7--| |--------------------------------|------------------------7--| |--------------------------------|------------------------5--| |--------------------------------|---------------------------| |------19b---19b---0--22b-|------22b---22b---0--19b-| |-------------------------|-------------------------| |-------------------------|-------------------------| |-------------------------|-------------------------| |-------------------------|-------------------------| |-------------------------|-------------------------| | |-------------------------|-------------------------| |-------------------------|-------------------------| |-------------------------|-------------------------| |-------------------------|----------------------4--| |-------------------------|----------------------4--| |-------------------------|----------------------2--| |------17------19--17--------|--------------------|------------------| |----------19----------19----|----------------19/-|------------------| |----------------------------|--------------------|------------------| |----------------------------|--------------------|------------------| |----------------------------|--------------------|------------------| |----------------------------|--------------------|------------------| | |----------------------------|--------------------|------------------| |----------------------------|--------------------|------------------| |----------------------------|--------------------|------------------| |----------------------------|-----------------4--|------------------| |----------------------------|-----------------4--|------------------| |----------------------------|-----------------2--|------------------| |------------------|-------------------|-----------------2--|------------------| |------------------|-------------------|-----------------2--|------------------| |------------------|--7----------------|----9------------2--|------------------| |------------------|--7----------------|----9------------4--|------------------| |------------------|--5----------------|----7------------4--|------------------| |------------------|-------------------|-----------------2--|------------------| |------------------|-------------------|--------------------| |------------------|-------------------|--------------------| |------------------|--7----------------|--9-----------------| |------------------|--7----------------|--9--------------4--| |------------------|--5----------------|--7-----------------| |------------------|-------------------|--------------------| |------------------------|--------------------------------|--------------------| |------------------------|--------------------------------|--------------------| |--------------1----2----|--4----2----1----2----1---------|--------------------| |------------------------|---------------------------2----|--0------------2r---| |------------------------|--------------------------------|--------------------| |------------------------|--------------------------------|--------------------| |-------------------|------------------------|--------------------------------| |-------------------|------------------------|-----------------2---------2----| |-------------------|--------------1----2----|--4----2----4---------4---------| |----------------4--|------------------------|--------------------------------| |-------------------|------------------------|--------------------------------| |-------------------|------------------------|--------------------------------| Gtr2 |--------------------|-------------------|------------------------| |--3------------5r---|-------------------|------------------------| |--------------------|-------------------|--------------1----2----| |--------------------|----------------4--|------------------------| |--------------------|-------------------|------------------------| |--------------------|-------------------|------------------------| |Gtr3 |--------------------|----------------2--|--------------4----5----| |--------------------|-------------------|------------------------| |--------------------|-------------------|------------------------| |--------------------|-------------------|------------------------| |--------------------|-------------------|------------------------| |--------------------|-------------------|------------------------| |--------------------------------|--------------------|-------------------| |--------------------------------|--------------------|-------------------| |--4----2----1----2----1---------|--------------------|-------------------| |---------------------------2----|--0------------2r---|----------------4--| |--------------------------------|--------------------|-------------------| |--------------------------------|--------------------|-------------------| | |--7----5----4----5----4---------|--------------------|----------------2--| |---------------------------5----|--3------------5r---|-------------------| |--------------------------------|--------------------|-------------------| |--------------------------------|--------------------|-------------------| |--------------------------------|--------------------|-------------------| |--------------------------------|--------------------|-------------------| |------------------------|--------------------------------|--------------------| |------------------------|-----------------2---------2----|--------------------| |--------------1----2----|--4----2----4---------4---------|--------------------| |------------------------|--------------------------------|--0------------2r---| |------------------------|--------------------------------|--------------------| |------------------------|--------------------------------|--------------------| | |--------------4----5----|--7----5----7----9----7----9----|-10-----------12r---| |------------------------|--------------------------------|--------------------| |------------------------|--------------------------------|--------------------| |------------------------|--------------------------------|--------------------| |------------------------|--------------------------------|--------------------| |------------------------|--------------------------------|--------------------| Gtr2 |-------------------|------------------------|-----------------------| |-------------------|------------------------|-----------------------| |-------------------|------------------------|-----------------------| |-------------------|------------------------|------------------7----| |----------------4--|----4--4----------0--4--|----4--4----------7----| |----------------2--|----2--2----0--2-----2--|----2--2----0--2--5----| |--------------------|-------------------|-------------------------| |--------------------|-------------------|-------------------------| |--7--------------9--|-------------------|-------------------------| |--7--------------9--|----------------4--|----4--4--4--------------| |--5--------------7--|----------------4--|----4--4--4--------0--4--| |--------------------|----------------2--|----2--2--2--0--2-----2--| |------------------------|--------------------|--------------------| |------------------------|--------------------|--------------------| |------------------------|--7-----------------|--------------------| |-------------------7----|--7--------------2--|--------------------| |----4--4--4--------7----|--5--------------2--|--------------0--4--| |----2--2--2--0--2--5----|-----------------0--|-----------------2--| |------------------------|-----------------------|--------------------| |------------------------|-----------------------|--------------------| |------------------------|-----------------------|--7--------------9--| |------------------------|------------------7----|--7--------------9--| |----4--4----------0--4--|----4--4----------7----|--5--------------7--| |----2--2----0--2-----2--|----2--2----0--2--5----|--------------------| |-------------------|-------------------------|------------------------| |-------------------|-------------------------|------------------------| |-------------------|-------------------------|------------------------| |----------------4--|----4--4--4--------------|-------------------7----| |----------------4--|----4--4--4--------0--4--|----4--4--4--------7----| |----------------2--|----2--2--2--0--2-----2--|----2--2--2--0--2--5----| |--------------------|------------------|| |--------------------|------------------|| |--7-----------------|------------------|| |--7--------------2--|------------------|| |--5--------------2--|------------------|| |-----------------0--|------------------||








О сайтеАккордыХит-парадПоискУроки ФорумыИщу песню
ПрограммыСвежачок-сПодпискаСтатьи
Яндекс.Метрика