Басовая табулатура W.A.S.P. | I Wanna Be Somebody гитара табулатуры уроки тексты песен W.A.S.P. текст lyrics песня аккорды песни ноты нота электрогитара струна  
   А Б В Г Д Е Ж З И К Л М Н О П Р С Т У Ф Х Ч Ш Ы Э Ю Я       Разные песни
1-9 A B C D E F G H I J K L M N O P Q R S T U V W Y Z      Все исполнители

    



группа W.A.S.P., Басовая табулатура песни I Wanna Be Somebody

Группа: W.A.S.P. - другие аккорды (67),   о группе (12 статей),   диски (23),   фотографии (38)
Басовая табулатура песни: I Wanna Be Somebody
Просмотров: 1998
Подобрал: Judas (killer@bk.ru)




    
#----------------------------------PLEASE NOTE---------------------------------#
#This file is the author's own work and represents their interpretation of the #
#song. You may only use this file for private study, scholarship, or research. #
#------------------------------------------------------------------------------#
Author/Artist: W.A.S.P.
Title: I Wanna Be Somebody
Album: W.A.S.P.
Type: Bass Tablature
Transcribed by: Roadkill
Email: Unknown
#------------------------------------------------------------------------------#
#- Distributed by the site Chainsaw Charlie - http://wasptabs.planetaclix.pt  -#
#------------------------------------------------------------------------------#
                         I WANNA BE SOMEBODY (Bassline)
                             As recorded by W.A.S.P.
                         (From the 1984 Album W.A.S.P.)
Words and Music by Blackie Lawless
Transcribed by Roadkill
Bass Gtr I (Eb Ab Db Gb)
  Fast Rock Q=168(8=s8)
 4/4
  Bass Gtr I
              |--3--|  |--3--|  |--3--|
  W           E  E  E  E  E  E  E  E  E  Q
|----------|---------------------------------||
|----------|---------------------------------||
|----------|-12-12-12-12-12-12-12-12-12-12--||
|----------|---------------------------------||

  $
      |-3-|     |-3-|       |-3-|     |-3-|
  E E E E E E E E E E   E E E E E E E E E E
|---------------------|----------------------|
|---------------------|----------------------|
|---------------------|----------------------|
|-5-5-5-5-5-5-5-5-5-5-|-5-5-5-5-5-5-5-5-5-5--|

      |-3-|     |-3-|       |-3-|     |-3-|       |-3-|     |-3-|
  E E E E E E E E E E   E E E E E E E E E E   E E E E E E E E E E
|---------------------|---------------------|---------------------|
|---------------------|---------------------|---------------------|
|---------------------|---------------------|---------------------|
|-3-5-5-5-5-5-5-5-5-5-|-5-5-5-5-5-5-5-5-5-5-|-3h5-5-5-5-5-5-5-5-5-|

      |-3-|     |-3-|
  E E E E E E E E E E   E E Q  E E E E   Q  Q  Q  Q
|---------------------|----------------|-------------|
|---------------------|----------------|-------------|
|---------------------|-5-5-5--5-5-5-5-|-5--3--2-----|
|-5-5-5-5-5-5-5-5-5-5-|----------------|----------3--|

      |-3-|     |-3-|       |-3-|     |-3-|
  E E E E E E E E E E   E E E E E E E E E E
|---------------------|---------------------|
|---------------------|---------------------|
|---------------------|---------------------|
|-5-5-5-5-5-5-5-5-5-5-|-5-5-5-5-5-5-5-5-5-5-|

      |-3-|     |-3-|       |-3-|     |-3-|
  E E E E E E E E E E   E E E E E E E E E E
|---------------------|---------------------|
|---------------------|---------------------|
|---------------------|---------------------|
|-3h5-5-5-5-5-5-5-5-5-|-5-5-5-5-5-5-5-5-5-5-|

      |-3-|     |-3-|       |-3-|     |-3-|
  E E E E E E E E E E   E E E E E E E E E E
|---------------------|----------------------|
|---------------------|----------------------|
|---------------------|----------------------|
|-3h5-5-5-5-5-5-5-5-5-|-5-5-5-5-5-5-5-5-5-5--|

      |-3-|     |-3-|
  E E E E E E E E E E   Q  Q  Q  Q    E E E E E E E E   E E E E E E E E
|---------------------|-------------|-----------------|-----------------|
|---------------------|-------------|-----------------|-----------------|
|-5-5-5-5-5-5-5-5-5-5-|-5--3--2-----|-----------------|-----------------|
|---------------------|----------1--|-1-1-1-1-1-1-1-1-|-1-1-1-1-3-3-3-5-|

        |-3-|     |-3-|       |-3-|     |-3-|
  +E  E E E E E E E E E   E E E E E E E E E E
|-----------------------|---------------------|
|-----------------------|---------------------|
|-----------------------|---------------------|
|-(5)-5-5-5-5-5-5-5-5-5-|-5-5-5-5-5-5-5-5-5-5-|

  E E E E E E E E   E E E E E E E E
|-----------------|-----------------|
|-----------------|-----------------|
|-----------------|-----------------|
|-1-1-1-1-1-1-1-1-|-1-1-1-1-3-3-3-5-|

  +E  E E E E E E E     Q   Q   Q   Q     E E E E E E E E
|--------------------|------------------|-----------------|
|--------------------|------------------|-----------------|
|--------------------|-12--12--12--12--|-----------------|
|-(5)-5-5-5-5-5-5-5/-|------------------|-1-1-1-1-1-1-1-1-|

          |-3-|             |-3-| |-3-| |-3-|
  E E E E E E E E E   +E  E E E E E E E E E E
|-------------------|---------------------------|
|-------------------|---------------------------|
|-----------------5-|-(5)-5-5-5-5-5-5-5-5-5-5---|
|-1-1-1-3-3-3-3-3---|---------------------------|

                 Chorus
                      |-3-|     |-3-|       |-3-|
  E E Q  H        E E E E E E E E E E   E E E E E E E Q     H    Q.   E
|-------------||----------------------|-------------------|--------------|
|-------------||o---------------------|-------------------|--------------|
|-5-----------||o---------------------|-------------------|-----------5--|
|-------------||--5-5-5-5-5-5-5-5-5-5-|-5-5-5-5-5-5-5-5--|-1----1-------|

  1.,2.,3.                  4.
                     To Coda                D.S. al Coda  &
        |-3-| |-3-|                                           |-3-|
  +E  E E E E E E E E E     a W          +H.        Q     E E E E E Q  Q
|------------------------||------------|----------------|-----------------||
|-----------------------o||------------|----------------|-----------------||
|-(5)-5-5-5-5-3p2p0-----o||-5-5--------|-(5)------/12--|-5-5-5-5-5-3--3--||
|-------------------3-5--||------------|----------------|-----------------||

      |-3-| |-3-| |-3-|   |-3-| |-3-|
  E E E E E E E E E E E   E E E E E E E E E E
|-----------------------|---------------------|
|-----------------------|---------------------|
|-5-5-5-5-5-3h5-5-5-5-5-|-3h5-5-5-5-5---------|
|-----------------------|-------------3-3-3-5-|

  +E  E E E E E Q      Q   Q   a  Q   a  Q
|-------------------|--------------------------|
|-------------------|--------------------------|
|-------------------|-12--12--10h12--10h12----|
|-(5)-5-5-5-5-5-5/--|--------------------------|

      |-3-| |-3-| |-3-|
  E E E E E E E E E E E   a E E Q   E E E E
|-----------------------|-------------------|
|-----------------------|-------------------|
|-5-5-5-5-5-3h5-5-5-5-5-|-3h5-5-5--------7-|
|-----------------------|-----------1-0-----|

Продолжаем грести бабос на ботах в Telegram.
Только в этот раз есть вариант автоматизировать это дело, привлекая рефералов. Вы можете заработать если »

|-3-| |-3-| |-3-| +E E E E E E E E E E E E E Q H |-------------------------|-------------|| |-------------------------|-------------|| |-(7)-7-7-7-7-7-7-7-7-7-7-|-7-----------|| |-------------------------|-------------|| Guitar Solo |-3-| |-3-| |-3-| |-3-| E E E E E E E E E E E E E E E E E E E E ||----------------------|---------------------| ||o---------------------|---------------------| ||o---------------------|---------------------| ||--5-5-5-5-5-5-5-5-5-5-|-5-5-5-5-5-5-5-5-5-5-| |-3-| |-3-| E E E E E E E E +E E E E E E E E E E 4x |-----------------|--------------------------|| |-----------------|-------------------------o|| |---------------5-|-(5)-5-5-5-5-3p2p0-------o|| |-1-1-1-1-1-1-1---|-------------------3-5----|| |-3-| |-3-| |-3-| |-3-| +Q q q q q q q q q q q Q E E E E E E E E E E E E |---------------|-------------|---------------|-------------------------|| |---------------|-------------|---------------|-------------------------|| |---------------|-------------|---------------|-------------------------|| |-(5)--5--5--5--|-5--5--5--5--|-5--5--5--10--|-1-1-1-1-1-1-3-3-3-3-3-3-|| |-3-| |-3-| |-3-| |-3-| Q q q q q q q q q q q Q E E E E E E E E E E E E ||--------------|-------------|---------------|---------------------------|| ||o-------------|-------------|---------------|--------------------------o|| ||o-------------|-------------|---------------|--------------------------o|| ||--5--5--5--5--|-5--5--5--5--|-5--5--5--10--|-1-1-1-1-1-1-3-3-3-3-3-3---|| |-3-| |-3-| |-3-| |-3-| E E E E E E E E E E E E E E E E E E E E ||----------------------|---------------------| ||o---------------------|---------------------| ||o---------------------|---------------------| ||--5-5-5-5-5-5-5-5-5-5-|-5-5-5-5-5-5-5-5-5-5-| 1.,2.,3. |-3-| |-3-| |-3-| E E E E E E E E E +E E E E E E E E E E |-------------------|-------------------------|| |-------------------|------------------------o|| |-----------------5-|-(5)-5-5-5-5-3p2p0------o|| |-1-1-1-1-1-1-1-1---|-------------------3-5---|| 4. |-3-| E E E E E E E Q E E E E E E E E |------------------|-----------------| |------------------|-----------------| |-5-5-5-5-3-2-0----|-----------------| |---------------3--|-5-5-5-5-5-5-5-5-| |-3-| E E E E E E E E E E E E E E E E E W |-------------------|-----------------|-------| |-------------------|-----------------|-------| |-------------------|-----------------|-------| |-5-5-5-5-5-0-3-4-5-|-5-5-5-5-5-5-5-5-|-5/----| |--3--| |--3--| |--3--| |--3--| |--3--| |--3--| |--3--| |--3--| e e e e e e e e e e e e e e e e e e E E E E E E |-------------------------------------|-------------------------------------| |-------------------------------------|-------------------------------------| |-12-12-12-12-12-12-12-12-12-12-12-12-|-12-12-12-12-12-12-12-10-12-10-12-10-| |-------------------------------------|-------------------------------------| |--3--| |--3--| |--3--| |--3--| |--3--| |--3--| E E E E E E E E E E E E E E E E E E E E +Q |-------------------------------------|---------------------------------*| |-------------------------------------|---------------------------------*| |-12-12-12-12-12-12-12-12-12-12-12-12-|-12-12-12-12-12-12-10-12-(12)---*| |-------------------------------------|---------------------------------*| Duration Legend --------------- W - whole; H - half; Q - quarter; E - 8th; S - 16th; T - 32nd; X - 64th; a - acciaccatura + - note tied to previous; . - note dotted; .. - note double dotted Uncapitalized letters represent notes that are staccato (1/2 duration) Irregular groupings are notated above the duration line Duration letters will always appear directly above the note/fret number it represents the duration for. Duration letters with no fret number below them represent rests. Multi- bar rests are notated in the form Wxn, where n is the number of bars to rest for. Low melody durations appear below the staff Tablature Legend ---------------- h - hammer-on p - pull-off b - bend pb - pre-bend r - bend release (if no number after the r, then release immediately) / - slide into or out of (from/to "nowhere") s - legato slide S - shift slide - natural harmonic [n] - artificial harmonic n(n) - tapped harmonic ~ - vibrato tr - trill T - tap TP - trem. picking PM - palm muting n/ - tremolo bar dip; n = amount to dip n - tremolo bar down n/ - tremolo bar up /n - tremolo bar inverted dip = - hold bend; also acts as connecting device for hammers/pulls <> - volume swell (louder/softer) x - on rhythm slash represents muted slash o - on rhythm slash represents single note slash Misc Legend ----------- | - bar || - double bar ||o - repeat start o|| - repeat end *| - double bar (ending) : - bar (freetime) $ - Segno & - Coda Tempo markers - = BPM(8/16=s8/s16), where s8 = swing 8ths, s16 = swing 16ths *************************************************************************************** * Generated using Power Tab Editor by Brad Larsen - http://powertab.guitarnetwork.org * ***************************************************************************************








О сайтеАккордыХит-парадПоискУроки ФорумыИщу песню
ПрограммыСвежачок-сПодпискаСтатьи
Яндекс.Метрика