Табулатура W.A.S.P. | Tormentor  (2) гитара табулатуры уроки тексты песен W.A.S.P. текст lyrics песня аккорды песни ноты нота электрогитара струна  
   А Б В Г Д Е Ж З И К Л М Н О П Р С Т У Ф Х Ч Ш Ы Э Ю Я       Разные песни
1-9 A B C D E F G H I J K L M N O P Q R S T U V W Y Z      Все исполнители

    



группа W.A.S.P., Табулатура песни Tormentor (2)

Группа: W.A.S.P. - другие аккорды (67),   о группе (12 статей),   диски (23),   фотографии (38)
Табулатура песни: Tormentor (2)
Просмотров: 1440
Подобрал: Judas (killer@bk.ru)




    
#----------------------------------PLEASE NOTE---------------------------------#
#This file is the author's own work and represents their interpretation of the #
#song. You may only use this file for private study, scholarship, or research. #
#------------------------------------------------------------------------------##
Author/Artist: W.A.S.P.
Title: The Torture Never Stops
Album: W.A.S.P.
Type: Guitar Tablature
Transcribed by: ANDREAS ЦHRN
Email: eva.ohrn@telia.com
#------------------------------------------------------------------------------#
#- Distributed by the site Chainsaw Charlie - http://wasptabs.planetaclix.pt  -#
#------------------------------------------------------------------------------#
THE TORTURE NEVER STOPS
FROM WASP ALBUM
BY W.A.S.P.
NOTE: TUNE GUITAR DOWN TO Eb
TABBED BY ANDREAS ЦHRN
INTRO:  X 8
E|------------------------------------|
B|------------------------------------|
G|------------------------------------|
D|------------------------------------|
A|-------9---7---5---4----------------|
E|---0-0---0---0---0---0-3/2-0-2-0----|
    |P.M| | | | | | | | |
VERSE:  X 4
E|-------------------------------------------------------------|
B|-------------------------------------------------------------|
G|-------------------------------------------------------------|
D|-------------------------------------------------------------|
A|-------------------------------------------------------------|
E|---2--2-2-2--2-2-2--2-2-2--2-2-2--2-2-2--2-2-2--0-2-3-2-0----|
    | P.M...................................... |
BRIDGE:
E|--------------------------------------------------------------------------------|
B|--------------------------------------------------------------------------------|
G|---4--2-4--4--------------------------------------------------------------------|
D|---4--2-4--4--------------------------------------------------------------------|
A|---2--0-2--2--0-----------------------------------------------------------------|
E|----------------2--2-2-2--2-2-2--2-2-2--2-2-2--2-2-2--2/0-2-3--2--2-2-2--2-2-2--|
                 | P.M............................... |         | P.M.............
E|-------------------------------------------|
B|-------------------------------------------|
G|--------------------------------6--7-------|
D|--------------------------------6--7--2----|
A|--------------------------------4--5--2----|
E|---2-2-2--2-2-2--2-2-2--2/0-2-3-------0----|
    ................... |
CHORUS:
SAME RIFF AS INTRO  X 4
VERSE:
SAME AS ABOVE
BRIDGE:
SAME AS ABOVE
CHORUS:
SAME AS ABOVE
BRIDGE:
E|-----------------------------------------------------------------------------------|
B|-----------------------------------------------------------------------------------|
G|---4--2--4--2--4--2--4--2--4--2--4--2----------------------------------------------|
D|---4--2--4--2--4--2--4--2--4--2--4--2----------------------------------------------|
A|---2--0--2--0--2--0--2--0--2--0--2--0----------------------------------------------|
E|---------------------------------------2--2-2-2--2-2-2--2-2-2--2-2-2--2-2-2--2-2-2-|
                                        | P.M........................................
E|-----------------------------------------------------------------------------------|
B|-----------------------------------------------------------------------------------|
G|----------4--2--4--2--4--2--4--4--4--4--4--2---------------------------------------|

Продолжаем грести бабос на ботах в Telegram.
Только в этот раз есть вариант автоматизировать это дело, привлекая рефералов. Вы можете заработать если »

D|----------4--2--4--2--4--2--4--4--4--4--4--2---------------------------------------| A|----------2--0--2--0--2--0--2--2--2--2--2--0---------------------------------------| E|---2-2-2--------------------------------------2--2-2-2--2-2-2--2-2-2--2-2-2--2-2-2-| ...... | | P.M................................. E|----------------------------| B|----------------------------| G|-----------------6--7-------| D|-----------------6--7--2----| A|-----------------4--5--2----| E|---2-2-2--2-2-2--------0----| ............ | SOLO: E|-----------------------------------|----------------------------------------------| B|-----------------------------------|----------------------------------------------| G|-- PLAY THIS 8 TIMES --------------|-4---2--4--4--2-------------------------------| D|-----------------------------------|-4---2--4--4--2--5--2-------------------------| A|-------------------------------0---|-2---0--2--2--0--5--2-------------------------| E|---2-2-2-2-2-2-2-2-2-2-2-2-2-2---0-|-----------------3--0--2--2-2-2--2-2-2--2-2-2-| | P.M............................ | | P.M................... E|--------------------------------------------------------------------------------| B|--------------------------------------------------------------------------------| G|--------------------------------------------------------------------------------| D|--------------------------------------------------------------------------------| A|---------------------------------------------------------------2--2-2-2--2-2-2--| E|---2-2-4--4-4-4--4-4-4--4-4-4--4-4-5--5-5-5--5-5-5--5-5-5--5-5------------------| ............................................................................... E|----------------------------| B|----------------------------| G|-----------------6--7-------| D|-----------------6--7--2----| A|---2-2-2--2-2-2--4--5--2----| E|-----------------------0----| ............. | CHORUS: SAME AS ABOVE OUTRO: FIRST INTRORIFF X 12 THEN E|--------------------------------------| B|--------------------------------------| G|---11--9--7--6------------------------| D|---11--9--7--6-------------4--4--4----| A|----9--7--5--4-------------4--4--4----| E|---------------0-0-0-2-3-0-2--2--2----| THE TORTURE NEVER STOPS (Lawless) Bang, bang, banging in your head You're banging on the walls Hang, hang, hanging up youself You're hanging by your balls And you, you die but no-one hears or cares And hope's the rope that keeps you tied in knots The torture never stops The torture never stops Suck, suck, sucking at your life Your master sucks the juice Shoot, shoot, shooting at you And the hangman's noose is loose And you, you cry but no-one hears or cares And hope's the rope that keeps you tied in knots The torture never stops The torture never stops Your masters beat you bloody Still you're running back for more And every day, you lay down and play the whore The torture never stops The torture never stops








О сайтеАккордыХит-парадПоискУроки ФорумыИщу песню
ПрограммыСвежачок-сПодпискаСтатьи
Яндекс.Метрика