Табулатура W.A.S.P. | On Your Knees гитара табулатуры уроки тексты песен W.A.S.P. текст lyrics песня аккорды песни ноты нота электрогитара струна  
   А Б В Г Д Е Ж З И К Л М Н О П Р С Т У Ф Х Ч Ш Ы Э Ю Я       Разные песни
1-9 A B C D E F G H I J K L M N O P Q R S T U V W Y Z      Все исполнители

    



группа W.A.S.P., Табулатура песни On Your Knees

Группа: W.A.S.P. - другие аккорды (67),   о группе (12 статей),   диски (23),   фотографии (38)
Табулатура песни: On Your Knees
Просмотров: 1432
Подобрал: Judas (killer@bk.ru)




    
#----------------------------------PLEASE NOTE---------------------------------#
#This file is the author's own work and represents their interpretation of the #
#song. You may only use this file for private study, scholarship, or research. #
#------------------------------------------------------------------------------#
Author/Artist: W.A.S.P.
Title: On Your Knees
Album: W.A.S.P.
Type: Guitar Tablature
Transcribed by: Unknown
Email: Unknown
#------------------------------------------------------------------------------#
#- Distributed by the site Chainsaw Charlie - http://wasptabs.planetaclix.pt  -#
#------------------------------------------------------------------------------#
                                  ON YOUR KNEES
                             As recorded by W.A.S.P.
                         (From the 1984 Album W.A.S.P.)
Words and Music by Blackie Lawless
Gtr I (Eb Ab Db Gb Bb Eb) - 'Untitled'
Gtr II (Eb Ab Db Gb Bb Eb) - 'Untitled'
 Intro
  Fast Rock Q=185
                                             E5   D5     E5        D5 E5
 4/4
  Gtrs I, II
     PM----------------------------|
  Q  E E E E E E     E E E E E E E E  6x     Q.   E +Q   Q    H    Q  Q
|----------------||-------------------||-||-----------------|-------------|
|----------------||o-----------------o||-||o----------------|-------------|
|----------------||-------------------||-||-----------------|-------------|
|----------------||-------------------||-||--9----7-(7)--9--|-9----7--9---|
|----7-7-7-7-7-7-||o-7-7-7-7-7-7-7-7-o||-||o-7----5-(5)--7--|-7----5--7---|
|----------------||-------------------||-||-----------------|-------------|

       D5     E5        D5 E5   G5         A5
  Q.   E +Q   Q    H    Q  Q    W          W
|----------------|------------|----------|------|
|----------------|------------|----------|------|
|----------------|------------|----------|------|
|-9----7-(7)--9--|-9----7--9--|-5--------|-7----|
|-7----5-(5)--7--|-7----5--7--|-5--------|-7----|
|----------------|------------|-3--------|-5----|

  E5                      D5         A5         E5   D5     E5
  W          +W           W          W          Q.   E +Q   Q
|----------|------------|----------|----------|----------------|
|----------|------------|-3--------|----------|----------------|
|----------|------------|-2--------|-2--------|----------------|
|-2--------|-(2)--------|-0--------|-2--------|-9----7-(7)--9--|
|-2--------|-(2)--------|----------|-0--------|-7----5-(5)--7--|
|-0--------|-(0)--------|----------|----------|----------------|

       D5 E5        D5     E5        D5 E5   G5         A5
  H    Q  Q    Q.   E +Q   Q    H    Q  Q    W          W
|------------|----------------|------------|----------|------|
|------------|----------------|------------|----------|------|
|------------|----------------|------------|----------|------|
|-9----7--9--|-9----7-(7)--9--|-9----7--9--|-5--------|-7----|
|-7----5--7--|-7----5-(5)--7--|-7----5--7--|-5--------|-7----|
|------------|----------------|------------|-3--------|-5----|

  B5
  Q  E E E E E E   E E E E E E E E   Q  E E E E E E   E E E E E E E E
|----------------|-----------------|----------------|-----------------|
|----------------|-----------------|----------------|-----------------|
|----------------|-----------------|----------------|-----------------|
|-9--------------|-----------------|----------------|-----------------|
|-9--9-9-9-9-9-9-|-7s9-9-9-7s9-9-7s|=9--9-9-7s9-9-9-|-9-9-9-9-9-9-9-9-|
|-7--7-7-7-7-7-7-|-5s7-7-7-5s7-7-5s|=7--7-7-5s7-7-7-|-7-7-7-7-7-7-7-7-|

 Chorus
  $
  E5   D5     E5                G5          A5
  Q.   E +Q   Q    +W           Q.   E +Q   Q    +H     +H
|----------------|------------|----------------|----------------|
|----------------|------------|----------------|----------------|
|----------------|------------|----------------|----------------|
|-9----7-(7)--9--|-(9)--------|-5----5-(5)--7--|-(7)----(7)----|
|-7----5-(5)--7--|-(7)--------|-5----5-(5)--7--|-(7)----(7)----|
|----------------|------------|-3----3-(3)--5--|-(5)----(5)----|

  E5   D5     E5                G5          A5
  Q.   E +Q   Q    +W           Q.   E +Q   Q    +H     +H
|----------------|------------|----------------|----------------|
|----------------|------------|----------------|----------------|
|----------------|------------|----------------|----------------|
|-9----7-(7)--9--|-(9)--------|-5----5-(5)--7--|-(7)----(7)----|
|-7----5-(5)--7--|-(7)--------|-5----5-(5)--7--|-(7)----(7)----|
|----------------|------------|-3----3-(3)--5--|-(5)----(5)----|

  E5   D5     E5                    G5          A5
  Q.   E +Q   Q    +H     +H        Q.   E +Q   Q    +H     +H
|----------------|----------------|----------------|----------------|
|----------------|----------------|----------------|----------------|
|----------------|----------------|----------------|----------------|
|-9----7-(7)--9--|-(9)----(9)----|-5----5-(5)--7--|-(7)----(7)----|
|-7----5-(5)--7--|-(7)----(7)----|-5----5-(5)--7--|-(7)----(7)----|
|----------------|----------------|-3----3-(3)--5--|-(5)----(5)----|

                                                1.
                                          To Coda
  E5   D5     E5                G5          A5
  Q.   E +Q   Q    +W           Q.   E +Q   Q    +W
|----------------|------------|----------------|---------||
|----------------|------------|----------------|--------o||
|----------------|------------|----------------|---------||
|-9----7-(7)--9--|-(9)--------|-5----5-(5)--7--|-(7)-----||
|-7----5-(5)--7--|-(7)--------|-5----5-(5)--7--|-(7)----o||
|----------------|------------|-3----3-(3)--5--|-(5)-----||

                Bridge
  2.
                 B5   A5     B5           A5 (B5)      A5     B5
  +H.      Q     Q.   E +Q   Q    E E E E Q  Q    Q.   E +Q   Q
|-------------||----------------|---------------|----------------|
|-------------||----------------|---------------|----------------|
|-------------||-4----2-(2)--4--|-2h4-4-4-2-----|-4----2-(2)--4--|
|-(7)------7--||-4----2-(2)--4--|-2h4-4-4-2--0--|-4----2-(2)--4--|
|-(7)------7--||-2----0-(0)--2--|---------------|-2----0-(0)--2--|
|-(5)------5--||----------------|---------------|----------------|

          A5 B5        A5     B5           A5 B5   B5   A5     B5
  E E E E Q  Q    Q.   E +Q   Q    E E E E Q  Q    Q.   E +Q   Q
|---------------|----------------|---------------|----------------|
|---------------|----------------|---------------|----------------|
|-2h4-4-4-2--4--|-4----2-(2)--4--|-2h4-4-4-2--4--|-4----2-(2)--4--|
|-2h4-4-4-2--4--|-4----2-(2)--4--|-2h4-4-4-2--4--|-4----2-(2)--4--|
|---------------|-2----0-(0)--2--|---------------|-2----0-(0)--2--|
|---------------|----------------|---------------|----------------|

                    B5   A5     B5           A5 B5   B5   A5     B5
  E E E E E E E E   Q.   E +Q   Q    E E E E Q  Q    Q.   E +Q   Q
|-----------------|----------------|---------------|----------------|
|-----------------|----------------|---------------|----------------|
|-2h4-2-2h4-2h4-4-|-4----2-(2)--4--|-2h4-4-4-2--4--|-4----2-(2)--4--|
|-2h4-2-2h4-2h4-4-|-4----2-(2)--4--|-2h4-4-4-2--4--|-4----2-(2)--4--|
|-----------------|-2----0-(0)--2--|---------------|-2----0-(0)--2--|
|-----------------|----------------|---------------|----------------|

          A5 B5        A5     B5           A5 B5
  E E E E Q  Q    Q.   E +Q   Q    E E E E Q  Q
|---------------|----------------|---------------|
|---------------|----------------|---------------|
|-2h4-4-4-2--4--|-4----2-(2)--4--|-2h4-4-4-2--4--|
|-2h4-4-4-2--4--|-4----2-(2)--4--|-2h4-4-4-2--4--|
|---------------|-2----0-(0)--2--|---------------|
|---------------|----------------|---------------|

                  D.S. al Coda
       C5      C#5    D5   D#5E5
  Q  E E +E  E Q    E Q  E Q  Q
|-----------------|--------------||
|-----------------|--------------||
|-----------------|--------------||
|-4----5-(5)---6--|---7----8--9--||
|-2--0-3-(3)-0-4--|-0-5--0-6--7--||
|-----------------|--------------||

 Guitar Solo
  &
  Gtr I
                         ~                                 ~
   H          +H         W            E  E E E  E  E E E   H    H
|----------------------|------------|--------------------|------------|
|-[5]pb7r====([5])-----|------------|--------------------|------------|
|----------------------|------------|-----------2--0-----|------------|
|----------------------|-4----------|-0--2-4-0-------4-2-|-4----------|
|----------------------|------------|--------------------|------2-----|
|----------------------|------------|--------------------|------------|
|
| Gtr II
|  Q.      E  +Q    Q    H    Q  Q    Q.     E +Q    Q     H    Q  Q
|----------------------|------------|--------------------|------------|
|----------------------|------------|--------------------|------------|
|----------------------|------------|--------------------|------------|
|--9-------7--(7)---9--|-9----7--9--|-9------7-(7)---9---|-9----7--9--|
|--7-------5--(5)---7--|-7----5--7--|-7------5-(5)---7---|-7----5--7--|
|----------------------|------------|--------------------|------------|

                                       ~~~
   Q       +H          +E   E    E  E  H.
|-----------------------------|------------------|
|-17b19===(17)r=======(17)-15-|-17-15------------|
|-----------------------------|-------16---------|
|-----------------------------|------------------|
|-----------------------------|------------------|
|-----------------------------|------------------|
|
|  Q.          E +Q     Q        H         Q  Q
|-----------------------------|------------------|
|-----------------------------|------------------|
|-----------------------------|------------------|
|--9-----------7-(7)----9-----|--9---------7--9--|
|--7-----------5-(5)----7-----|--7---------5--7--|
|-----------------------------|------------------|

                               ~~
   E   E  E  E  E   E  E  E    W
|---------------------------|-------------|
|--------------15--14-------|-------------|
|--------14-----------16-14-|-16----------|
|-14--16----16--------------|-------------|
|---------------------------|-------------|
|---------------------------|-------------|
|
|  Q.        E +Q      Q       H    Q  Q
|---------------------------|-------------|
|---------------------------|-------------|
|---------------------------|-------------|
|--9---------7-(7)-----9----|--9----7--9--|
|--7---------5-(5)-----7----|--7----5--7--|
|---------------------------|-------------|

                                           ~~~
   W                    E  E      +Q    E  Q.
|--------------------|-17------------------------|
|-17pb19-------------|----17pb19r(17)--15--------|
|--------------------|--------------------16-----|
|--------------------|---------------------------|
|--------------------|---------------------------|
|--------------------|---------------------------|
|
|  Q.      E +Q   Q     H               Q     Q
|--------------------|---------------------------|
|--------------------|---------------------------|
|--------------------|---------------------------|
|--9-------7-(7)--9--|--9---------------7-----9--|
|--7-------5-(5)--7--|--7---------------5-----7--|
|--------------------|---------------------------|

   E   E  E  E  E   E  E  E    E  E  E  E  E  E  E  E

Продолжаем грести бабос на ботах в Telegram.
Только в этот раз есть вариант автоматизировать это дело, привлекая рефералов. Вы можете заработать если »

|---------------------------|-------------------------| |--------------17--15-------|-15----------17-15-------| |--------14-----------16-14-|----16-14-16-------16-14-| |-14--16----16--------------|-------------------------| |---------------------------|-------------------------| |---------------------------|-------------------------| | | Q. E +Q Q H Q Q |---------------------------|-------------------------| |---------------------------|-------------------------| |---------------------------|-------------------------| |--9---------7-(7)-----9----|--9-----------7-----9----| |--7---------5-(5)-----7----|--7-----------5-----7----| |---------------------------|-------------------------| E E E E E E E E E E E E E E E E |---------------------------|-------------------------| |-15--------17-15-----15----|----17-15----15----------| |-----16-14--------16----16-|-14-------16----16-14-16-| |---------------------------|-------------------------| |---------------------------|-------------------------| |---------------------------|-------------------------| | | Q. E +Q Q H Q Q |---------------------------|-------------------------| |---------------------------|-------------------------| |---------------------------|-------------------------| |--9---------7-(7)-----9----|--9-----------7-----9----| |--7---------5-(5)-----7----|--7-----------5-----7----| |---------------------------|-------------------------| B5 C5 C#5 D5 D#5 E5 ~~~~~~~~~~~~~~~~~~~~~~~~~~~~~~~ Q. E +Q Q +E Q. Q Q |----------------------|---------------------|| |-17-----14-(14)---12--|-(12)-10-------------|| |----------------------|-------------12--11--|| |----------------------|---------------------|| |----------------------|---------------------|| |----------------------|---------------------|| | | Q E E +E E Q E Q E Q Q |----------------------|---------------------|| |----------------------|---------------------|| |----------------------|---------------------|| |--4------5--(5)----6--|-------7------8---9--|| |--2---0--3--(3)-0--4--|---0---5---0--6---7--|| |----------------------|---------------------|| Chorus $ E5 D5 E5 G5 A5 Gtrs I, II Q. E +Q Q +W Q. E +Q Q +H +H |----------------|------------|----------------|----------------| |----------------|------------|----------------|----------------| |----------------|------------|----------------|----------------| |-9----7-(7)--9--|-(9)--------|-5----5-(5)--7--|-(7)----(7)----| |-7----5-(5)--7--|-(7)--------|-5----5-(5)--7--|-(7)----(7)----| |----------------|------------|-3----3-(3)--5--|-(5)----(5)----| E5 D5 E5 G5 A5 Q. E +Q Q +W Q. E +Q Q +H +H |----------------|------------|----------------|----------------| |----------------|------------|----------------|----------------| |----------------|------------|----------------|----------------| |-9----7-(7)--9--|-(9)--------|-5----5-(5)--7--|-(7)----(7)----| |-7----5-(5)--7--|-(7)--------|-5----5-(5)--7--|-(7)----(7)----| |----------------|------------|-3----3-(3)--5--|-(5)----(5)----| E5 D5 E5 G5 A5 Q. E +Q Q +H +H Q. E +Q Q +H +H |----------------|----------------|----------------|----------------| |----------------|----------------|----------------|----------------| |----------------|----------------|----------------|----------------| |-9----7-(7)--9--|-(9)----(9)----|-5----5-(5)--7--|-(7)----(7)----| |-7----5-(5)--7--|-(7)----(7)----|-5----5-(5)--7--|-(7)----(7)----| |----------------|----------------|-3----3-(3)--5--|-(5)----(5)----| E5 D5 E5 G5 A5 Q. E +Q Q +W Q. E +Q Q +W |----------------|------------|----------------|--------| |----------------|------------|----------------|--------| |----------------|------------|----------------|--------| |-9----7-(7)--9--|-(9)--------|-5----5-(5)--7--|-(7)----| |-7----5-(5)--7--|-(7)--------|-5----5-(5)--7--|-(7)----| |----------------|------------|-3----3-(3)--5--|-(5)----| B5 C5 C#5 D5 D#5E5 Q. E +Q Q +E Q. E E E E Q E E +E E Q E Q E Q Q |----------------|------------------|-----------------|--------------|| |----------------|------------------|-----------------|--------------|| |----------------|------------------|-----------------|--------------|| |-4----4-(4)--4--|-(4)-4----4-4-4-4-|-4----5-(5)---6--|---7----8--9--|| |-2----2-(2)--2--|-(2)-2----2-2-2-2-|-2--0-3-(3)-0-4--|-0-5--0-6--7--|| |----------------|------------------|-----------------|--------------|| E5 D5 E5 C#5 D5 A5 E5 Em Q. E +Q Q +H. Q Q. E +Q Q +Q H. ||-----------------|-------------|----------------|------0-----| ||o----------------|-------------|----------------|------0-----| ||--9----7-(7)--9--|-(9)---------|----------------|------0-----| ||--9----7-(7)--9--|-(9)------6--|-7----7-(7)--2--|-(2)--------| ||o-7----5-(5)--7--|-(7)------4--|-5----7-(7)--2--|-(2)--------| ||-----------------|-------------|------5-(5)--0--|-(0)--------| E5 D5 E5 C#5 D5 A5 E5 Q. E +Q Q +H. Q Q. E +Q Q +W |----------------|-------------|----------------|---------|| |----------------|-------------|----------------|--------o|| |-9----7-(7)--9--|-(9)---------|----------------|---------|| |-9----7-(7)--9--|-(9)------6--|-7----7-(7)--2--|-(2)-----|| |-7----5-(5)--7--|-(7)------4--|-5----7-(7)--2--|-(2)----o|| |----------------|-------------|------5-(5)--0--|-(0)-----|| E5 D5 E5 C#5 Gtr I Q. E +Q Q +H. Q ||------------------------|-----------------| ||o-----------------------|-----------------| ||---9-----7---(7)----9---|--(9)------------| ||---9-----7---(7)----9---|--(9)--------6---| ||o--7-----5---(5)----7---|--(7)--------4---| ||------------------------|-----------------| | | Gtr II | Q. E +Q Q +H. Q ||------------------------|-----------------| ||o-----------------------|-----------------| ||--[9]---[7]-([7])--[9]--|-([9])------[6]--| ||------------------------|-----------------| ||o-----------------------|-----------------| ||------------------------|-----------------| D5 A5 E5 Em Q. E +Q Q +Q H. |-----------------------|--------0-----| |-----------------------|--------0-----| |-----------------------|--------0-----| |--7-----7---(7)----2---|--(2)---------| |--5-----7---(7)----2---|--(2)---------| |--------5---(5)----0---|--(0)---------| | | Q. E +Q Q +W |-----------------------|--------------| |-----------------------|--------------| |-[7]-------------------|--------------| |-------[7]-([7])--[2]--|-([2])--------| |-----------------------|--------------| |-----------------------|--------------| E5 D5 E5 C#5 D5 A5 E5 Q. E +Q Q +H. Q Q. E +Q Q +W |-----------------------|-----------------|-----------------------|-----------|| |-----------------------|-----------------|-----------------------|----------o|| |--9-----7---(7)----9---|--(9)------------|-----------------------|-----------|| |--9-----7---(7)----9---|--(9)--------6---|--7-----7---(7)----2---|--(2)------|| |--7-----5---(5)----7---|--(7)--------4---|--5-----7---(7)----2---|--(2)-----o|| |-----------------------|-----------------|--------5---(5)----0---|--(0)------|| | | Q. E +Q Q +H. Q Q. E +Q Q +W |-----------------------|-----------------|-----------------------|-----------|| |-----------------------|-----------------|-----------------------|----------o|| |-[9]---[7]-([7])--[9]--|-([9])------[6]--|-[7]-------------------|-----------|| |-----------------------|-----------------|-------[7]-([7])--[2]--|-([2])-----|| |-----------------------|-----------------|-----------------------|----------o|| |-----------------------|-----------------|-----------------------|-----------|| Duration Legend --------------- W - whole; H - half; Q - quarter; E - 8th; S - 16th; T - 32nd; X - 64th; a - acciaccatura + - note tied to previous; . - note dotted; .. - note double dotted Uncapitalized letters represent notes that are staccato (1/2 duration) Irregular groupings are notated above the duration line Duration letters will always appear directly above the note/fret number it represents the duration for. Duration letters with no fret number below them represent rests. Multi- bar rests are notated in the form Wxn, where n is the number of bars to rest for. Low melody durations appear below the staff Tablature Legend ---------------- h - hammer-on p - pull-off b - bend pb - pre-bend r - bend release (if no number after the r, then release immediately) / - slide into or out of (from/to "nowhere") s - legato slide S - shift slide - natural harmonic [n] - artificial harmonic n(n) - tapped harmonic ~ - vibrato tr - trill T - tap TP - trem. picking PM - palm muting n/ - tremolo bar dip; n = amount to dip n - tremolo bar down n/ - tremolo bar up /n - tremolo bar inverted dip = - hold bend; also acts as connecting device for hammers/pulls <> - volume swell (louder/softer) x - on rhythm slash represents muted slash o - on rhythm slash represents single note slash Misc Legend ----------- | - bar || - double bar ||o - repeat start o|| - repeat end *| - double bar (ending) : - bar (freetime) $ - Segno & - Coda Tempo markers - = BPM(8/16=s8/s16), where s8 = swing 8ths, s16 = swing 16ths *************************************************************************************** * Generated using Power Tab Editor by Brad Larsen - http://powertab.guitarnetwork.org * ***************************************************************************************








О сайтеАккордыХит-парадПоискУроки ФорумыИщу песню
ПрограммыСвежачок-сПодпискаСтатьи
Яндекс.Метрика