Табулатура W.A.S.P. | Sleeping In The Fire  (2) гитара табулатуры уроки тексты песен W.A.S.P. текст lyrics песня аккорды песни ноты нота электрогитара струна  
   А Б В Г Д Е Ж З И К Л М Н О П Р С Т У Ф Х Ч Ш Ы Э Ю Я       Разные песни
1-9 A B C D E F G H I J K L M N O P Q R S T U V W Y Z      Все исполнители

    



группа W.A.S.P., Табулатура песни Sleeping In The Fire (2)

Группа: W.A.S.P. - другие аккорды (67),   о группе (12 статей),   диски (23),   фотографии (38)
Табулатура песни: Sleeping In The Fire (2)
Просмотров: 1551
Подобрал: Judas (killer@bk.ru)




    
#----------------------------------PLEASE NOTE---------------------------------#
#This file is the author's own work and represents their interpretation of the #
#song. You may only use this file for private study, scholarship, or research. #
#------------------------------------------------------------------------------#
Author/Artist: W.A.S.P.
Title: Sleeping (In The Fire)
Album: W.A.S.P.
Type: Guitar Tablature
Transcribed by: Martin Karlsson
Email: gibson_sg61@hotmail.com
#------------------------------------------------------------------------------#
#- Distributed by the site Chainsaw Charlie - http://wasptabs.planetaclix.pt  -#
#------------------------------------------------------------------------------#
Original source for this tablature: http://medlem.tripodnet.nu/Killahead/

Song: 		Sleeping in the fire
Performer: 	W.A.S.P.
Album: 		W.A.S.P. (1984)
Tab written by: Martin Karlsson (gibson_sg61@hotmail.com). 
Comments, questions but most important, corrections are welcomed
Awesome singing performance by Mr Blackie Lawless during the intro.
You feel it all the way down your spine, oooooohhhhhhhhyeah!
His voice is outstanding in the rock genre, in any genre if you ask me.
The intro is played on a 12 string acoustic guitar by the way... 
 Fig 1			     End Fig 1
   E
e:----------0----------------0--------|
B:------------0----------------0------|
G:--------------9----------------9----|
D:-----9----------9------9---------9--|
A:---7---7-------------7---7----------|
E:-0-----------------0----------------|
  2x----------------------------------|
 Fig 2
   E					D
e:----------0----------------0--------|---------0----------------0--------|
B:------------0----------------0------|-----------0----------------0------|
G:--------------9----------------9----|-----7-------7--------7-------7----|
D:-----9----------9------9---------9--|---7---7-------7----7---7-------7--|
A:---7---7-------------7---7----------|-5----------------5----------------|
E:-0-----------------0----------------|-----------------------------------|
								 End Fig 2
   C				       E with Fill 1			   Fill 1					
e:---------0----------------0--------|---------0-----------------0--------|-----|
B:-----------0----------------0------|-----------0-----------------0------|-----|
G:-----5-------5--------5-------5----|-------------9----------11----------|-----|
D:---5---5-------5----5---5-------5--|-----9---------9------9--------9----|-2---|
A:-3----------------3----------------|---7---7------------7------------7--|-2---|
E:-----------------------------------|-0----------------0-----------------|-0---|
 Fig 3			   End Fig 3   Fig 4
   E					E
e:-----------------|-----------------||-------------------------|
B:-----------------|-----------------||-------------------------|
G:-----------------|-----------------||-------------------------|
D:-2-2-2-2-2-2-2-2-|-2-2-2-2-2-2-2-2-||-2----2--2----2---2--2---|
A:-2-2-2-2-2-2-2-2-|-2-2-2-2-2-2-2-2-||-2----2--2----2---2--2---|
E:-0-0-0-0-0-0-0-0-|-0-0-0-0-0-0-0-0-||-0----0--0----0---0--0---|
									 End Fig 4
   C			      D				 E
e:--------------------------|--------------------------|--------------------------|

Продолжаем грести бабос на ботах в Telegram.
Только в этот раз есть вариант автоматизировать это дело, привлекая рефералов. Вы можете заработать если »

B:--------------------------|--------------------------|--------------------------| G:-5----5--5----5----5--5---|-7----7--7----7----7--7---|--------------------------| D:-5----5--5----5----5--5---|-7----7--7----7----7--7---|-2----2--2----2----2--2---| A:-3----3--3----3----3--3---|-5----5--5----5----5--5---|-2----2--2----2----2--2---| E:--------------------------|--------------------------|-0----0--0----0----0--0---| Fig 5 C C C A B e:-----------|----------------------------------------|------|------|---------| B:-----------|----------------------------------------|------|------|---------| G:-5----5----|----------------------------------------|-5----|-5----|-2---4---| D:-5----5----|-5-4-----------------5-4----------------|-5----|-5----|-2---4---| A:-3----3----|-----7-5-7--5-7----------7-5-7--5-7-----|-3----|-3----|-0---2---| E:-----------|-----------------0-------------------0--|------|------|---------| 2x--------------------------------------------------| End Fig 5 B e:----------| B:----------| G:-4-4-4-4--| D:-4-4-4-4--| A:-2-2-2-2--| E:----------| Intro: Fig 1 Fig 2 Touch, touch in the flame's desire Feeling the pain's denial, And your finger's in the fire Fig 2 Look, look in the candle light See in the flame of life And my spell our lie Fig 3 Fig 4 Taste the love The lucifer's magic that makes you numb The passion and all the pain are one You're sleeping in the fire Fig 4 Taste the love The lucifer's magic that makes you numb You feel what it does and you're drunk on love You're sleeping in the fire Fig 5 I gaze as the flame and fire burn And cry out the name of which I yearn oooooooooooohhhhhhhhhhh During solo: Fig 2 2x Fig 4 Taste the love The lucifer's magic that makes you numb The passion and all the pain are one You're sleeping in the fire Fig 4 Taste the love The lucifer's magic that makes you numb You feel what it does and you're drunk on love You're sleeping in the fire








О сайтеАккордыХит-парадПоискУроки ФорумыИщу песню
ПрограммыСвежачок-сПодпискаСтатьи
Яндекс.Метрика