Табулатура W.A.S.P. | Hellion  (2) гитара табулатуры уроки тексты песен W.A.S.P. текст lyrics песня аккорды песни ноты нота электрогитара струна  
   А Б В Г Д Е Ж З И К Л М Н О П Р С Т У Ф Х Ч Ш Ы Э Ю Я       Разные песни
1-9 A B C D E F G H I J K L M N O P Q R S T U V W Y Z      Все исполнители

    



группа W.A.S.P., Табулатура песни Hellion (2)

Группа: W.A.S.P. - другие аккорды (67),   о группе (12 статей),   диски (23),   фотографии (38)
Табулатура песни: Hellion (2)
Просмотров: 1401
Подобрал: Judas (killer@bk.ru)




    
#----------------------------------PLEASE NOTE---------------------------------#
#This file is the author's own work and represents their interpretation of the #
#song. You may only use this file for private study, scholarship, or research. #
#------------------------------------------------------------------------------##
Author/Artist: W.A.S.P.
Title: Hellion
Album: W.A.S.P.
Type: Guitar Tablature
Transcribed by: ANDREAS ЦHRN
Email: eva.ohrn@telia.com
#------------------------------------------------------------------------------#
#- Distributed by the site Chainsaw Charlie - http://wasptabs.planetaclix.pt  -#
#------------------------------------------------------------------------------#
HELLION
FROM WASP ALBUM
BY W.A.S.P.
TABBED BY ANDREAS ЦHRN
INTRO:
E|---------------------------------------------------------------------|
B|---------------------------------------------------------------------|
G|---9--7--5--2--9--7--5--2--7-9--9-7--7-5--5-2--7-9--9-7--7-5--5-2----|
D|---7--5--3--2--7--5--3--2--5-7--7-5--5-3--3-2--5-7--7-5--5-3--3-2----|
A|------------0-----------0-------------------0-------------------0----|
E|---------------------------------------------------------------------|
VERSE:
E|----------------------------------------------------------------------------------|
B|----------------------------------------------------------------------------------|
G|----------------------------------------------------------------------------------|
D|---5-7-------------------------5-7-------------------------5-7--------------------|
A|---5-7-------------------------5-7-------------------------5-7--------------------|
E|---3-5-5-5-5-5-5-5-5-5-5-5-5-5-3-5-5-5-5-5-5-5-5-5-5-5-5-5-3-5-5-5-5-5-5-5-5-5-5-5|
        | P.M.................. |   | P.M.................. |   | P.M...............
E|----------------------------------------------------------------------------------|
B|----------------------------------------------------------------------------------|
G|-----------5--4-------------------------------------------------------------------|
D|-----------5--4--5--6--7---5-7-------------------------5-7------------------------|
A|-----------3--2--5--6--7---5-7-------------------------5-7------------------------|
E|---5-5-5-5-------3--4--5---3-5-5-5-5-5-5-5-5-5-5-5-5-5-3-5-5-5-5-5-5-5-5-5-5-5-5-5|
    ....... |                   | P.M.................. |   | P.M...................
E|---------------------------|
B|---------------------------|
G|-------5--4----------------|
D|-------5--4--5--7--3--5----|
A|-------3--2--5--7--3--5----|
E|---5-5-------3--5--1--3----|
    ... |  
CHORUS:
E|----------------------------------------------------------------------|
B|----------------------------------------------------------------------|
G|------------------------2/0-----2------------------------2/0-----2----|
D|---7--3--5------3/0-------------2--7--3--5------3/0--------------2----|
A|---7--3--5--0-0-----0-0-----0-0-0--7--3--5--0-0-----0-0------0-0-0----|
E|---5--1--3-------------------------5--1--3----------------------------|
             |P.M|   |P.M|   |P.M|           |P.M|   |P.M|    |P.M|
VERSE:
SAME AS ABOVE
CHORUS:
SAME AS ABOVE
BRIDGE:
E|-----------------------------|

Продолжаем грести бабос на ботах в Telegram.
Только в этот раз есть вариант автоматизировать это дело, привлекая рефералов. Вы можете заработать если »

B|-----------------------------| G|-----------------------------| D|---5--7--5--7--3--7--3--5----| A|---5--7--5--7--3--7--3--5----| E|---3--5--3--5--1--5--1--3----| SOLO: X 4 E|---------------------------------------------------------------------------------| B|---------------------------------------------------------------------------------| G|---------------------------------------------------------------------------------| D|---7-----------------------------3-----------------------------5-----------------| A|---7-----------------------------3-----------------------------5-------------0-0-| E|---5-5-5-5-5-5-5-5-5-5-5-5-5-5-5-1-1-1-1-1-1-1-1-1-1-1-1-1-1-1-3-3-3-3-3-3-3-----| | P.M...................... | | P.M...................... | | P.M...........| E|-------------------------| B|-------------------------| G|-----------2/0-----------| D|---3/0-------------7-----| A|-------0-0-----0-0-7-----| E|-------------------5-----| |P.M| |P.M| CHORUS: X 2 SAME AS ABOVE OUTRO: E|-----------------------------------------------------------------| B|-----------------------------------------------------------------| G|-----------2/0-----2----------2/0-----2-2-2---------2/0-----2----| D|---3/0-------------2--3/0-------------2-2-2-3/0-------------2----| A|-------0-0-----0-0-0------0-0-----0-0-0-0-0-----0-0-----0-0-0----| E|-----------------------------------------------------------------| |P.M| |P.M| |P.M| |P.M| |P.M| |P.M| HELLION (Lawless) Hell-hound, hot leather on your legs That smokin powder keg You're riding on is hell-bound And you're the one they claim It's going down in flames You're riding Hades' rails (Hellion) Hellion - The devil's Hellion child Hellion - will never have to die Well child, you're sweatin' and you're stoned That alcohol you downed Makes you crazy- All night, you damn the hurt and pain And drink the devils rain It's screaming out your name Hellion - The devil's Hellion child Hellion - will never have to die The Gods you worship are steel At the altar of rock 'n' roll you kneel A slave who forever rocks Is chained in the devil's locks And slain by the bloody axe I wail Hellion - The devil's Hellion child Hellion - will never have to die --------------------------------------------------------------------------------








О сайтеАккордыХит-парадПоискУроки ФорумыИщу песню
ПрограммыСвежачок-сПодпискаСтатьи
Яндекс.Метрика