Табулатура W.A.S.P. | Hellion гитара табулатуры уроки тексты песен W.A.S.P. текст lyrics песня аккорды песни ноты нота электрогитара струна  
   А Б В Г Д Е Ж З И К Л М Н О П Р С Т У Ф Х Ч Ш Ы Э Ю Я       Разные песни
1-9 A B C D E F G H I J K L M N O P Q R S T U V W Y Z      Все исполнители

    



группа W.A.S.P., Табулатура песни Hellion

Группа: W.A.S.P. - другие аккорды (67),   о группе (12 статей),   диски (23),   фотографии (38)
Табулатура песни: Hellion
Просмотров: 834
Подобрал: Judas (killer@bk.ru)




    
#----------------------------------PLEASE NOTE---------------------------------#
#This file is the author's own work and represents their interpretation of the #
#song. You may only use this file for private study, scholarship, or research. #
#------------------------------------------------------------------------------##
Author/Artist: W.A.S.P.
Title: Hellion
Album: W.A.S.P.
Type: Guitar Tablature
Transcribed by: Jani Ylikangas
Email: jylikangas@yahoo.com
#------------------------------------------------------------------------------#
#- Distributed by the site Chainsaw Charlie - http://wasptabs.planetaclix.pt  -#
#------------------------------------------------------------------------------#
W.A.S.P.
'The Hellion'
from the album 'Wasp'

transcribed by
  Jani Ylikangas (jylikangas@yahoo.com)
find more metal tablatures at
  http://venus.spaceports.com/~metaltab/

tune down half step
intro
e|-----------------------------------------------------------------------|
B|-----------------------------------------------------------------------|
G|--9------7------5------2------9------7------5------2----7--------------|
D|--7------5------3------2------7------5------3------2----5--------------|
A|-----------------------0---------------------------0-------------------|
E|-----------------------------------------------------------------------|
e|-----------------------------------------------------------------------|
B|-----------------------------------------------------------------------|
G|--9----9-7----7-5----5-2----7-9----9-7----7-5----5-2------2------------|
D|--7----7-5----5-3----3-2----5-7----7-5----5-3----3-2------2------------|
A|-----------------------0---------------------------0------0------5-----|
E|-----------------------------------------------------------------3-----|
verse
e|-----------------------------------------------------------------------|
B|-----------------------------------------------------------------------|
G|-----------------------------------------------------------------------|
D|--2-------------------------------2------------------------------------|
A|--0---0-0-0-0-0-0-0-0-0-0-0-0-5---0---0-0-0-0-0-0-0-0-0-0-0-0-5--------|
E|------------------------------3-------------------------------3--------|
        * * * * * * * * * * * *         * * * * * * * * * * * *
e|-----------------------------------------------------------------------|
B|-----------------------------------------------------------------------|
G|-----------------------------------------------------------------------|
D|--2-------------------------------7---5---7-------2--------------------|
A|--0---0-0-0-0-0-0-0-0-0-0-0-0-0-0-5---3---5---5---0--------------------|
E|----------------------------------------------3------------------------|
        * * * * * * * * * * * * * *
e|-----------------------------------------------------------------------|

Продолжаем грести бабос на ботах в Telegram.
Только в этот раз есть вариант автоматизировать это дело, привлекая рефералов. Вы можете заработать если »

B|-----------------------------------------------------------------------| G|-----------------------------------------------------------------------| D|--2-------------------------------2------------------------------------| A|--0---0-0-0-0-0-0-0-0-0-0-0-0-5---0---0-0-0-0-0-0-0-0-0-0-0-0-5--------| E|------------------------------3-------------------------------3--------| * * * * * * * * * * * * * * * * * * * * * * * * e|-----------------------------------------------------------------------| B|-----------------------------------------------------------------------| G|-----------------------------------------------------------------------| D|--7---5---7------------------------------------------------------------| A|--5---3---5---5---3------5------5--------------------------------------| E|--------------3---1------3------3--------------------------------------| chorus e|-----------------------------------------------------------------------| B|-----------------------------------------------------------------------| G|--2--------------------------------------------------------------------| D|--2------------3------------5---0-----0-2-0-----2----------------------| A|--0------------3------------5-----2-3-------3-2-0------(5)-------------| E|---------------1------------3--------------------------(3)-------------| interlude e|-----------------------------------------------------------------------| B|-----------------------------------------------------------------------| G|-----------------------------------------------------------------------| D|--5------7------5------7------3------7------3--------------------------| A|--5------7------5------7------3------7------3------5--5--5--5----------| E|--3------5------3------5------1------5------1------3--3--3--3----------| solo backing e|-----------------------------------------------------------------------| B|-----------------------------------------------------------------------| G|-----------------------------------------------------------------------| D|--2-------------------------------3------5---0-----0-2-0-----2---------| A|--0---0-0-0-0-0-0-0-0-0-0-0-0-0-0-3------5-----2-3-------3-2-0---------| E|----------------------------------1------3-----------------------------| * * * * * * * * * * * * * * ending e|-----------------------------------------------------------------------| B|-----------------------------------------------------------------------| G|-----------------------------------------------------------------------| D|--0-----0-2-0-----2------0-----0-2-0-----2--2--2--0-----0-2-0-----2----| A|----2-3-------3-2-0--------2-3-------3-2-0--0--0----2-3-------3-2-0----| E|-----------------------------------------------------------------------|








О сайтеАккордыХит-парадПоискУроки ФорумыИщу песню
ПрограммыСвежачок-сПодпискаСтатьи
Яндекс.Метрика