Табулатура W.A.S.P. | B.a.d.  (2) гитара табулатуры уроки тексты песен W.A.S.P. текст lyrics песня аккорды песни ноты нота электрогитара струна  
   А Б В Г Д Е Ж З И К Л М Н О П Р С Т У Ф Х Ч Ш Ы Э Ю Я       Разные песни
1-9 A B C D E F G H I J K L M N O P Q R S T U V W Y Z      Все исполнители

    



группа W.A.S.P., Табулатура песни B.a.d. (2)

Группа: W.A.S.P. - другие аккорды (67),   о группе (12 статей),   диски (23),   фотографии (38)
Табулатура песни: B.a.d. (2)
Просмотров: 1096
Подобрал: Judas (killer@bk.ru)




    
#----------------------------------PLEASE NOTE---------------------------------#
#This file is the author's own work and represents their interpretation of the #
#song. You may only use this file for private study, scholarship, or research. #
#------------------------------------------------------------------------------##
Author/Artist: W.A.S.P.
Title: B.A.D.
Album: W.A.S.P.
Type: Guitar Tablature
Transcribed by: DeVampyr
Email: Unknown
#------------------------------------------------------------------------------#
#- Distributed by the site Chainsaw Charlie - http://wasptabs.planetaclix.pt  -#
#------------------------------------------------------------------------------#
                                     B.A.D.
                             As recorded by W.A.S.P.
                         (From the 1984 Album W.A.S.P.)
Words and Music by Blackie Lawless
Transcribed by DeVampyr
          F5                   G5                   A5                  A5VII
      1 3 3 x x x          3 5 5 x x x          x 0 2 2 x x         x 0 7 9 10 x
         F5III                 G5V                  D5                   C5
      x x 3 5 6 x          x x 5 7 8 x          x 5 7 7 x x          x 3 5 5 x x
Gtr I (E A D G B E) - 'Gtr I'
Gtr II (E A D G B E) - 'Gtr II'
 Intro
 4/4
  Gtr I
  E E E E H       Q  E E +E  E E E   E E E E H       Q   E E +E  E E E
|--------------|-------------------|--------------|---------------------|
|--------------|-------------------|--------------|---------------------|
|---9-9-7-9----|-12----7-(7)---7-9-|---9-9-7-9----|-12-----7-(7)---7-9--|
|---7-7-5-7----|-10----5-(5)---5-7-|---7-7-5-7----|-10-----5-(5)---5-7--|
|-0------------|-----0-------0-----|-0------------|------0-------0------|
|--------------|-------------------|--------------|---------------------|
|
| Gtr II
| W               W                  W               H        H
|--------------|-------------------|--------------|---------------------|
|--------------|-------------------|--------------|---------------------|
|--------------|-------------------|--------------|---------------------|
|--------------|-------------------|--------------|--x-----------------|
|--------------|-------------------|--------------|--x-------x--------|
|--------------|-------------------|--------------|-----------x--------|

  E E E E H       Q   E E +E   E   E E
|--------------|-----------------------|
|--------------|-----------------------|
|---9-9-7-9----|-12-----7-(7)------7-9-|
|---7-7-5-7----|-10-----5-(5)------5-7-|
|-0------------|------0--------0-------|
|--------------|-----------------------|
|
|                          |--3--|
| W              +H        E E   E E E
|--------------|-----------------------|
|--------------|-----------------------|
|-2------------|-(2)-----------------2-|
|-2------------|-(2)-----------------2-|
|-0------------|-(0)-------3p2p==0---0-|
|--------------|-------------------3---|

   E  E E E H       Q   E E +E   E   E E
|----------------|-----------------------|
|----------------|-----------------------|
|-----9-9-7-9----|-12-----7-(7)------7-9-|
|-----7-7-5-7----|-10-----5-(5)------5-7-|
|--0-------------|------0--------0-------|
|----------------|-----------------------|
|
|                            |--3--|
| +W               +H        E E   E E E
|----------------|-----------------------|
|----------------|-----------------------|
|-(2)------------|-(2)-----------------2-|
|-(2)------------|-(2)-----------------2-|
|-(0)------------|-(0)-------3p2p==0---0-|
|----------------|-------------------3---|

   E  E E E H       Q   E E +E   E   E E
|----------------|-----------------------|
|----------------|-----------------------|
|-----9-9-7-9----|-12-----7-(7)------7-9-|
|-----7-7-5-7----|-10-----5-(5)------5-7-|
|--0-------------|------0--------0-------|
|----------------|-----------------------|
|
|                            |--3--|
| +W               +H        E E   E E E
|----------------|-----------------------|
|----------------|-----------------------|
|-(2)------------|-(2)-----------------2-|
|-(2)------------|-(2)-----------------2-|
|-(0)------------|-(0)-------3p2p==0---0-|
|----------------|-------------------3---|

   E  E E E H       Q   E E +E   E   E E
|----------------|-----------------------|
|----------------|-----------------------|
|-----9-9-7-9----|-12-----7-(7)------7-9-|
|-----7-7-5-7----|-10-----5-(5)------5-7-|
|--0-------------|------0--------0-------|
|----------------|-----------------------|
|
|                            |--3--|
| +W               +H        E E   E E E
|----------------|-----------------------|
|----------------|-----------------------|
|-(2)------------|-(2)-----------------2-|
|-(2)------------|-(2)-----------------2-|
|-(0)------------|-(0)-------3p2p==0---0-|
|----------------|-------------------3---|

     E  E E E H       Q   E E +E   E   E E
||-----------------|-----------------------|
||o----------------|-----------------------|
||------9-9-7-9----|-12-----7-(7)------7-9-|
||------7-7-5-7----|-10-----5-(5)------5-7-|
||o--0-------------|------0--------0-------|
||-----------------|-----------------------|
|
|                              |--3--|
|   +E  E E E H       Q.    E  E E   E E E
||-----------------|-----------------------|
||o----------------|-----------------------|
||--(2)-2-2---2----|--5------------------2-|
||--(2)-2-2---2----|--5-----0------------2-|
||o-(0)-0-0---0----|--3--------3p2p==0---0-|
||----------3------|-------------------3---|

   E  E E E H       Q   E E +E   E   E E
|----------------|-------------------------||
|----------------|------------------------o||
|-----9-9-7-9----|-12-----7-(7)------7-9---||
|-----7-7-5-7----|-10-----5-(5)------5-7---||
|--0-------------|------0--------0--------o||
|----------------|-------------------------||
|
|                            |--3--|
| +E  E E E H       Q.    E  E E   E E E
|----------------|-------------------------||
|----------------|------------------------o||
|-(2)-2-2---2----|--5------------------2---||
|-(2)-2-2---2----|--5-----0------------2---||
|-(0)-0-0---0----|--3--------3p2p==0---0--o||
|---------3------|-------------------3-----||

 Verse
  $
  +W           +H     E   E   E  E    +Q    H.         +H      E   E   E  E
|------------|---------------------|----------------|-----------------------|
|------------|------------8---8-10-|-(10)--10-------|-(10)---------8---8-10-|
|-(9)--------|-(9)--------7---7--9-|--(9)---9-------|--(9)---------7---7--9-|
|-(7)--------|-(7)--------5---5--7-|--(7)---7-------|--(7)---------5---5--7-|
|------------|---------------------|----------------|-----------------------|
|------------|---------------------|----------------|-----------------------|
|
|                     |--3--|                                  |--3--|
| +W           +H     E E   E E  E    +Q    H.         +Q.   E E E   E E  E
|------------|---------------------|----------------|-----------------------|
|------------|---------------------|----------------|-----------------------|
|-(2)--------|-(2)---------------2-|--(2)---2-------|--(2)----------------2-|
|-(2)--------|-(2)---------------2-|--(2)---2-------|--(2)----------------2-|
|-(0)--------|-(0)----3p2p==0----0-|--(0)---0-------|--(0)-----3p2p==0----0-|
|------------|----------------3----|----------------|--------3---------3----|

   +Q    H.         +H      E   E   E  E    Q    H.         +W
|----------------|-----------------------|---------------|---------|
|-(10)--10-------|-(10)---------8---8-10-|-10---10-------|-(10)----|
|--(9)---9-------|--(9)---------7---7--9-|--9----9-------|--(9)----|
|--(7)---7-------|--(7)---------5---5--7-|--7----7-------|--(7)----|
|----------------|-----------------------|---------------|---------|
|----------------|-----------------------|---------------|---------|
|
|                           |--3--|
|   Q    H.         +Q.   E E E   E E  E   +Q    H.         +W
|----------------|-----------------------|---------------|---------|
|----------------|-----------------------|---------------|---------|
|---2----2-------|--(2)----------------2-|-(2)---2-------|--(2)----|
|---2----2-------|--(2)----------------2-|-(2)---2-------|--(2)----|
|---0----0-------|--(0)---0-3p2p==0----0-|-(0)---0-------|--(0)----|
|----------------|------------------3----|---------------|---------|

 Pre Chorus
  F5               G5               A5
  Gtr I
  W                W                W               +W
  |                |                |                |
  /                /                /                /
  Gtr II
  Q.   E +Q   Q    Q.   E +Q   Q    E E E E Q  Q    +E  E E E Q  Q
|----------------|----------------|---------------|-----------------|
|-1----0-(0)--1--|-3----1-(1)--0--|---------------|-----------------|
|-2-----------2--|-0----0-(0)--0--|---2-2-0-2--2--|-(2)-9-9-7-9--9--|
|-3-----------3--|-0--------------|---2-2-0-2--2--|-(2)-7-7-5-7--7--|
|----------------|----------------|-0----------0--|-(0)----------0--|
|----------------|-3--------------|---------------|-----------------|

  F5               G5               A5
  W                W                W               +W
  |                |                |                |
  /                /                /                /
  Q.   E +Q   Q    Q.   E +Q   Q    E E E E Q  Q    +E  E E E Q  Q
|----------------|----------------|---------------|-----------------|
|-1----0-(0)--1--|-3----1-(1)--0--|---------------|-----------------|
|-2-----------2--|-0----0-(0)--0--|---2-2-0-2--2--|-(2)-9-9-7-9--9--|
|-3-----------3--|-0--------------|---2-2-0-2--2--|-(2)-7-7-5-7--7--|
|----------------|----------------|-0----------0--|-(0)----------0--|
|----------------|-3--------------|---------------|-----------------|

                              Chorus
  F5               G5                A5VII                  F5IG5V
  W                W           Q     Q  Q     Q    Q     Q  Q  Q
  |                |                 |        |          |  |  |
  /                /                 /        /          /  /  /
                               PM--|    PM--|      PM--|
  Q.   E +Q   Q    W           E S S Q  E S S Q    E S S Q  Q  Q
|----------------|-3--------||-------------------|-----------------|
|-1----0-(0)--1--|-3--------||-------------------|-----------------|
|-2-----------2--|-0--------||-------2--------2--|-------2---------|
|-3-----------3--|-0--------||-------2--------2--|-------2--3--5---|
|----------------|----------||-0-0-0-0--0-0-0-0--|-0-0-0-0--3--5---|
|----------------|-3--------||-------------------|----------1--3---|

        A5VII                  D5 C5         A5VII                  F5IG5V
  Q     Q  Q     Q    Q     Q  Q  Q    Q     Q  Q     Q    Q     Q  Q  Q
        |        |          |  |  |          |        |          |  |  |
        /        /          /  /  /          /        /          /  /  /
  PM--|    PM--|      PM--|            PM--|    PM--|      PM--|
  E S S Q  E S S Q    E S S Q  Q  Q    E S S Q  E S S Q    E S S Q  Q  Q
|-------------------|----------------|-------------------|----------------|
|-------------------|----------3-----|-------------------|----------------|
|-------2--------2--|-------2--2--5--|-------2--------2--|-------2--------|
|-------2--------2--|-------2--0--5--|-------2--------2--|-------2--3--5--|

Продолжаем грести бабос на ботах в Telegram.
Только в этот раз есть вариант автоматизировать это дело, привлекая рефералов. Вы можете заработать если »

|-0-0-0-0--0-0-0-0--|-0-0-0-0-----3--|-0-0-0-0--0-0-0-0--|-0-0-0-0--3--5--| |-------------------|----------------|-------------------|----------1--3--| To Coda A5VII D5 C5 D5 Q Q Q Q Q Q Q Q W | | | | | | / / / / / / PM--| PM--| PM--| E S S Q E S S Q E S S Q Q Q W |-------------------|----------------|-------|| |-------------------|----------3-----|-3-----|| |-------2--------2--|-------2--2--5--|-2-----|| |-------2--------2--|-------2--0--5--|-0-----|| |-0-0-0-0--0-0-0-0--|-0-0-0-0-----3--|-------|| |-------------------|----------------|-------|| Gtr I E E E E H Q E E +E E E E |----------------|-----------------------| |----------------|-----------------------| |-----9-9-7-9----|-12-----7-(7)------7-9-| |-----7-7-5-7----|-10-----5-(5)------5-7-| |----------------|------0--------0-------| |----------------|-----------------------| | | Gtr II | |--3--| | +E E E E H Q. E E E E E E |----------------|-----------------------| |-(3)------------|-----------------------| |-(2)-2-2---2----|--5------------------2-| |-(0)-2-2---2----|--5-----0------------2-| |-----0-0---0----|--3--------3p2p==0---0-| |---------3------|-------------------3---| D.S. al Coda E E E E H Q E E +E E E E |----------------|-----------------------| |----------------|-----------------------| |-----9-9-7-9----|-12-----7-(7)------7-9-| |-----7-7-5-7----|-10-----5-(5)------5-7-| |--0-------------|------0--------0-------| |----------------|-----------------------| | | |--3--| | +E E E E H Q. E E E E E E |----------------|-----------------------| |----------------|-----------------------| |-(2)-2-2---2----|--5------------------2-| |-(2)-2-2---2----|--5-----0------------2-| |-(0)-0-0---0----|--3--------3p2p==0---0-| |---------3------|-------------------3---| Solo & Gtr II H. Q Q. E +Q Q |--------------||-15b17---15b17-(15)--15b17===| |--------------||-----------------------------| |-(7)------7--||-----------------------------| |-(7)------7--||-----------------------------| |-(5)------5--||-----------------------------| |--------------||-----------------------------| ~~~~~ +H E E E E E E E E +Q E E |-(15)r----12-14-15-14-|-12h14p12-------------15--------| |----------------------|----------15-(15)b17-----15b17==| |----------------------|--------------------------------| |----------------------|--------------------------------| |----------------------|--------------------------------| |----------------------|--------------------------------| ~~~~ ~~~ +Q E E +H H. +E S S Q. E S S E S S S S |--------15-----------------|--------------------|-----------------------| |-(15)r-----15b17==(15)r----|--------------------|-[8]-------------------| |---------------------------|-7b9=======(7)r-7p5-|-------------5-7p5-----| |---------------------------|--------------------|-------5-5h7-------7p5-| |---------------------------|--------------------|-----------------------| |---------------------------|--------------------|-----------------------| S S E +E +E S S S S S S S S |-------------------8p5-5-----------| |-----8b10==(8)r(8)-8p5-5-7---------| |-------------------------7-5h7p5---| |---------------------------------7-| |-7p5-------------------------------| |-----------------------------------| ~~~~~~~ E E E E Q Q Q. E +E E Q |-----------------|-----------------------15b17---| |-----------------|-15b17---15b17r(15)-13---------| |-7-5-------------|-------------------------------| |-----7-5-3-------|-------------------------------| |------------[5]--|-------------------------------| |-----------------|-------------------------------| Q. Q Q E +E E E +S S S E. +E E |-15-----------15--------|------15---------------------------------| |-------15b17------15b17-|-(15)----15pb17r(15)p13-15p13--(13)-[17]-| |------------------------|-----------------------------------------| |------------------------|-----------------------------------------| |------------------------|-----------------------------------------| |------------------------|-----------------------------------------| ~~ Q +S +S S S H |-20b22===(20)r(20)-17h20p17----| |-------------------------------| |-------------------------------| |-------------------------------| |-------------------------------| |-------------------------------| ~~~~~~~~~~~~~~ Q. Q. Q +Q. Q. Q Q +E Q E Q |-12-------------------|------------------|----------------| |-15b17----8------5----|-------[5]---[5]--|----------------| |---------10b12---7b9r=|=(7)--------------|--------5----5--| |----------------------|------------------|-7--(7)----7----| |----------------------|------------------|----------------| |----------------------|------------------|----------------| ~ S S Q S S H Q. E +E E Q +W |-----------------|-----------------------15b17r=|=(15)----|| |-8p5-------------|-15b17---15b17r(15)-13--------|---------|| |-----7--5h7-5----|------------------------------|---------|| |-----------------|------------------------------|---------|| |-----------------|------------------------------|---------|| |-----------------|------------------------------|---------|| Outro Chorus A5VII F5IG5V Gtr I Q Q Q Q Q Q Q Q | | | | | / / / / / Gtr II PM--| PM--| PM--| E S S Q E S S Q E S S Q Q Q ||--------------------|----------------| ||o-------------------|----------------| ||--------2--------2--|-------2--------| ||--------2--------2--|-------2--3--5--| ||o-0-0-0-0--0-0-0-0--|-0-0-0-0--3--5--| ||--------------------|----------1--3--| 1.,2.,3. A5VII D5 C5 Q Q Q Q Q Q Q Q | | | | | / / / / / PM--| PM--| PM--| E S S Q E S S Q E S S Q Q Q 4x |-------------------|-------------------|| |-------------------|----------3-------o|| |-------2--------2--|-------2--2--5-----|| |-------2--------2--|-------2--0--5-----|| |-0-0-0-0--0-0-0-0--|-0-0-0-0-----3----o|| |-------------------|-------------------|| 4. D5 C5 D5 A5VIG5A5VII Q Q Q Q W +W +E E E E Q Q | | | | | | | | | | / / / / / / / / / / PM--| E S S Q Q Q W +W +E E E E Q Q |----------------|----------|------------|------------------*| |----------3-----|-3--------|-(3)--------|-(3)--------------*| |-------2--2--5--|-2--------|-(2)--------|-(2)-2-2---2------*| |-------2--0--5--|-0--------|-(0)--------|-(0)-2-2---2------*| |-0-0-0-0-----3--|----------|------------|-----0-0---0------*| |----------------|----------|------------|---------3--------*| Duration Legend --------------- W - whole; H - half; Q - quarter; E - 8th; S - 16th; T - 32nd; X - 64th; a - acciaccatura + - note tied to previous; . - note dotted; .. - note double dotted Uncapitalized letters represent notes that are staccato (1/2 duration) Irregular groupings are notated above the duration line Duration letters will always appear directly above the note/fret number it represents the duration for. Duration letters with no fret number below them represent rests. Multi- bar rests are notated in the form Wxn, where n is the number of bars to rest for. Low melody durations appear below the staff Tablature Legend ---------------- h - hammer-on p - pull-off b - bend pb - pre-bend r - bend release (if no number after the r, then release immediately) / - slide into or out of (from/to "nowhere") s - legato slide S - shift slide - natural harmonic [n] - artificial harmonic n(n) - tapped harmonic ~ - vibrato tr - trill T - tap TP - trem. picking PM - palm muting n/ - tremolo bar dip; n = amount to dip n - tremolo bar down n/ - tremolo bar up /n - tremolo bar inverted dip = - hold bend; also acts as connecting device for hammers/pulls <> - volume swell (louder/softer) x - on rhythm slash represents muted slash o - on rhythm slash represents single note slash Misc Legend ----------- | - bar || - double bar ||o - repeat start o|| - repeat end *| - double bar (ending) : - bar (freetime) $ - Segno & - Coda Tempo markers - = BPM(8/16=s8/s16), where s8 = swing 8ths, s16 = swing 16ths *************************************************************************************** * Generated using Power Tab Editor by Brad Larsen - http://powertab.guitarnetwork.org * ***************************************************************************************

Фильтр для пруда германия
Лицензированные гиды и переводчики в Германии
prud-master.ru
Оценка недвижимости в Кирове
экспертиза недвижимости, объектов и их стоимости
kreoc.ru







О сайтеАккордыХит-парадПоискУроки ФорумыИщу песню
ПрограммыСвежачок-сПодпискаСтатьи
Яндекс.Метрика