Табулатура W.A.S.P. | B.a.d. гитара табулатуры уроки тексты песен W.A.S.P. текст lyrics песня аккорды песни ноты нота электрогитара струна  
   А Б В Г Д Е Ж З И К Л М Н О П Р С Т У Ф Х Ч Ш Ы Э Ю Я       Разные песни
1-9 A B C D E F G H I J K L M N O P Q R S T U V W Y Z      Все исполнители

    



группа W.A.S.P., Табулатура песни B.a.d.

Группа: W.A.S.P. - другие аккорды (67),   о группе (12 статей),   диски (23),   фотографии (38)
Табулатура песни: B.a.d.
Просмотров: 1296
Подобрал: Judas (killer@bk.ru)




    
#----------------------------------PLEASE NOTE---------------------------------#
#This file is the author's own work and represents their interpretation of the #
#song. You may only use this file for private study, scholarship, or research. #
#------------------------------------------------------------------------------#
Author/Artist: W.A.S.P.
Title: B.A.D.
Album: W.A.S.P.
Type: Guitar Tablature
Transcribed by: AeroKISS7527
Email: KISSfan5327@cs.com
#------------------------------------------------------------------------------#
#- Distributed by the site Chainsaw Charlie - http://wasptabs.planetaclix.pt  -#
#------------------------------------------------------------------------------#
Song: B.A.D.
Artist : W.A.S.P.
Tabbed by : AeroKISS7527

***Tuning : Eb Ab Db Gb Bb Eb***
      P.M.- palm mute
      h - hammer on
      p - pull off
      b - bend string up
      r - release bend
      / - slide up
       - slide down
      v - vibrato
      x - play 'note' with heavy damping
 Riff 1
                             P.M..
|--------------------------------|--------------------------------|
|--------------------------------|--------------------------------|
|-----14---14---12---14----------|----17------12-------12h14------|
|-----14---14---12---14----------|----17------12-------12h14------|
|0-------------------------------|0-0-----0--------0--------------|
|--------------------------------|--------------------------------|

Verse Riff (You hear the Cries of Love a Sad tune...)
|--------------------------------|--------------------------------|
|--------------------------------|--------------------------------|
|2-------------------------------|---------------2---2------------|
|2-------------------------------|---------------2---2------------|
|0-------------------------------|3p0----0-------0---0------------|
|--------------------------------|------------3-------------------|
Verse Part 2 (Those tears that you cry leave a Blood stain...)
|--------------------------------|--------------------------------|
|--------------------------------|--------------------------------|
|------------------------------2-|-2--2--0--2---------------------|
|3----3----3----5----5----5----2-|-2--2--0--2---------------------|
|3----3----3----5----5----5----0-|--------------------------------|
|1----1----1----3----3----3------|--------------------------------|
Pre-Chorus ('Coz Bad Girls they Do!!!)
|--------------------------------|--------------------------------|
|--------------------------------|--------------------------------|
|--------------------------------|--------------------------------|
|3------3-------3------3------3--|5-------------------------------|
|3------3-------3------3------3--|5-------------------------------|
|1------1-------1------1------1--|3-------------------------------|
Chorus (B.A.D. BAD!! MAKE YOUR MOM AND DADDY SAD!!...)
     P.m.
|--------------------------------|--------------------------------|
|--------------------------------|--------------------------------|

Продолжаем грести бабос на ботах в Telegram.
Только в этот раз есть вариант автоматизировать это дело, привлекая рефералов. Вы можете заработать если »

|----------2-------------2-------|----------2---------------------| |----------2-------------2-------|----------2----3-------5--------| |0---0-0-------0---0-0-----------|0---0-0--------3-------5--------| |--------------------------------|---------------1-------3--------| |--------------------------------|--------------------------------| |--------------------------------|--------------------------------| |----------2-------------2-------|----------2----7-------5--------| |----------2-------------2-------|----------2----7-------5--------| |0---0-0-------0---0-0-----------|0---0-0--------5-------3--------| |--------------------------------|--------------------------------| |--------------------------------|--------------------------------| |--------------------------------|--------------------------------| |----------2-------------2-------|----------2---------------------| |----------2-------------2-------|----------2----3-------5--------| |0---0-0-------0---0-0-----------|0---0-0--------3-------5--------| |--------------------------------|---------------1-------3--------| |--------------------------------|--------------------------------| |--------------------------------|--------------------------------| |----------2-------------2-------|----------2----7-------5--------| |----------2-------------2-------|----------2----7-------5--------| |0---0-0-------0---0-0-----------|0---0-0--------5-------3--------| |--------------------------------|--------------------------------| |--------------------------------| |--------------------------------| |7-------------------------------| |7-------------------------------| |5-------------------------------| |--------------------------------| Outro |--------------------------------| |--------------------------------| |2--2---------2------------------| |2--2---------2------------------| |0--0---------0------------------| |--------3-----------------------| Song Sequence: Riff 1 (x10) Verse Riff (x4) Verse Riff part 2 (x2) Pre Chorus Chorus Riff Riff 1 (x2) Verse Riff (x4) Verse Riff Part 2 (x2) Pre Chorus Chorus Riff Riff 1 (x4) Verse Riff part 2 (x2) Pre Chorus Chorus Riff (x2) Outro N e comments or questions email me at KISSfan5327@cs.com








О сайтеАккордыХит-парадПоискУроки ФорумыИщу песню
ПрограммыСвежачок-сПодпискаСтатьи
Яндекс.Метрика