Табулатура W.A.S.P. | The Flame  (2) гитара табулатуры уроки тексты песен W.A.S.P. текст lyrics песня аккорды песни ноты нота электрогитара струна  
   А Б В Г Д Е Ж З И К Л М Н О П Р С Т У Ф Х Ч Ш Ы Э Ю Я       Разные песни
1-9 A B C D E F G H I J K L M N O P Q R S T U V W Y Z      Все исполнители

    



группа W.A.S.P., Табулатура песни The Flame (2)

Группа: W.A.S.P. - другие аккорды (67),   о группе (12 статей),   диски (23),   фотографии (38)
Табулатура песни: The Flame (2)
Просмотров: 1231
Подобрал: Judas (killer@bk.ru)




    
#----------------------------------PLEASE NOTE---------------------------------#
#This file is the author's own work and represents their interpretation of the #
#song. You may only use this file for private study, scholarship, or research. #
#------------------------------------------------------------------------------##
Author/Artist: W.A.S.P.
Title: The Flame
Album: W.A.S.P.
Type: Guitar Tablature
Transcribed by: DeVampyr
Email: Unknown
#------------------------------------------------------------------------------#
#- Distributed by the site Chainsaw Charlie - http://wasptabs.planetaclix.pt  -#
#------------------------------------------------------------------------------#
                                    THE FLAME
                             As recorded by W.A.S.P.
                         (From the 1984 Album W.A.S.P.)
Words and Music by Blackie Lawless
Transcribed by DeVampyr
          E5                   F#5                  G5                   A5
      0 2 2 x x x          2 4 4 x x x          3 5 5 x x x          x 0 2 2 x x
Gtr I (E A D G B E) - 'Gtr I'
Gtr II (E A D G B E) - 'Gtr II'
 Intro
  Fast Rock Q=142
 4/4
  Gtr I
  H    E E E E   +W                  +H        +E  E E E   +W
|--------------|-------------------|---------------------|-------------------|
|--------3-3---|-------------------|---------------3-3---|-------------------|
|--------0-2-2-|-(2)---------------|-(2)-------(2)-0-2-2-|-(2)---------------|
|--------0-0-2-|-(2)---------------|-(2)-------(2)-0-0-2-|-(2)---------------|
|------------0-|-(0)---------------|-(0)-------(0)-----0-|-(0)---------------|
|--------------|-------------------|---------------------|-------------------|
|
| Gtr II
| H    E E E E   +E  E E E E E E E   +E  E E E  E  E E E   +E  E E E E E E E
|--------------|-------------------|---------------------|-------------------|
|--------3-3---|-------------------|---------------------|-------------------|
|--------0-2-2-|-(2)-------------2-|-(2)-------------2-2-|-(2)-------------2-|
|--------0-0-2-|-(2)---5---4-0-2-2-|-(2)---5----4--5---2-|-(2)---5---4-0-2-2-|
|------------0-|-(0)-0---0-------0-|-(0)-0---0---------0-|-(0)-0---0-------0-|
|--------------|-------------------|---------------------|-------------------|

  +H        +E  E E E   +H.           E E
|---------------------|-------------------|
|---------------3-3---|-------------------|
|-(2)-------(2)-0-2-2-|-(2)-----------2-2-|
|-(2)-------(2)-0-0-2-|-(2)-----------2-2-|
|-(0)-------(0)-----0-|-(0)-----------0-0-|
|---------------------|-------------------|
|
| +E  E E E  E  E E E   +E  E E E E E E E
|---------------------|-------------------|
|---------------------|-------------------|
|-(2)-------------2-2-|-(2)-------------2-|
|-(2)---5----4--5---2-|-(2)---5---4-0-2-2-|
|-(0)-0---0---------0-|-(0)-0---0-------0-|
|---------------------|-------------------|

  +H        +E  E E E   +H.           E E
|---------------------|--------------------|
|---------------3-3---|--------------------|
|-(2)-------(2)-0-2-2-|-(2)-----------2-2--|
|-(2)-------(2)-0-0-2-|-(2)-----------2-2--|
|-(0)-------(0)-----0-|-(0)-----------0-0--|
|---------------------|--------------------|
|
| +E  E E E  E  E E E   +E  E E E E E E E
|---------------------|--------------------|
|---------------------|--------------------|
|-(2)-------------2-2-|-(2)-------------2--|
|-(2)---5----4--5---2-|-(2)---5---4-0-2-2--|
|-(0)-0---0---------0-|-(0)-0---0-------0--|
|---------------------|--------------------|

               Verse
             $
  +W            W          +H     E E E E   +E  E E E E E E E
|------------||----------|----------------|--------------------|
|------------||-3--------|-(3)------------|--------------------|
|-(2)--------||-2--------|-(2)----5-4-2-2-|-(2)-------------2--|
|-(2)--------||-0--------|-(0)----5-4-2-2-|-(2)---5---4-0-2-2--|
|-(0)--------||----------|--------3-2-0-0-|-(0)-0---0-------0--|
|------------||----------|----------------|--------------------|

  +E  E E E E E E E   +W           +H     E E E E   +E  E E E E E E E
|-------------------|------------|----------------|--------------------|
|-----------------3-|-(3)--------|-(3)------------|--------------------|
|-(2)-------------2-|-(2)--------|-(2)----5-4-2-2-|-(2)-------------2--|
|-(2)---5---4-0---0-|-(0)--------|-(0)----5-4-2-2-|-(2)---5---4-0-2-2--|
|-(0)-0---0-----4---|------------|--------3-2-0-0-|-(0)-0---0-------0--|
|-------------------|------------|----------------|--------------------|

  +E  E E E E E E E   +W           +H     E E E E   +E  E E E E E E E
|-------------------|------------|----------------|--------------------|
|-----------------3-|-(3)--------|-(3)------------|--------------------|
|-(2)-------------2-|-(2)--------|-(2)----5-4-2-2-|-(2)-------------2--|
|-(2)---5---4-0---0-|-(0)--------|-(0)----5-4-2-2-|-(2)---5---4-0-2-2--|
|-(0)-0---0-----4---|------------|--------3-2-0-0-|-(0)-0---0-------0--|
|-------------------|------------|----------------|--------------------|

  +E  E E E E E E E   +W           +H     E E E E   +E  E E E E E E E
|-------------------|------------|----------------|--------------------|
|-----------------3-|-(3)--------|-(3)------------|--------------------|
|-(2)-------------2-|-(2)--------|-(2)----5-4-2-2-|-(2)-------------2--|
|-(2)---5---4-0---0-|-(0)--------|-(0)----5-4-2-2-|-(2)---5---4-0-2-2--|
|-(0)-0---0-----4---|------------|--------3-2-0-0-|-(0)-0---0-------0--|
|-------------------|------------|----------------|--------------------|

                      Chorus
  +E  E E E E E E E    H.      +E  E   +H.      +E  E   +E  E E E H
|-------------------||-3-------(3)---|----------------|----------------|
|-------------------||-3-------(3)-3-|-(3)------(3)---|-----2-2-2------|
|-(2)---------------||-0-------(0)-2-|-(2)------(2)-2-|-(2)-2-2-2-2----|
|-(2)---5---4-2-2-2-||-0-------(0)-0-|-(0)------(0)-2-|-(2)-2-2-2-2----|
|-(0)-0---0---------||---------------|--------------0-|-(0)-0-0-0-0----|
|-------------------||-3-------(3)---|----------------|----------------|

                                         To Coda
  +E  E E E H      H.      +E  E   +H.      +E  E
|----------------|-3-------(3)---|----------------|
|-----2-2-2-2----|-3-------(3)-3-|-(3)------(3)---|
|-(2)-2-2-2-2----|-0-------(0)-2-|-(2)------(2)-2-|
|-(2)-2-2-2-2----|-0-------(0)-0-|-(0)------(0)-2-|
|-(0)-0-0-0-0----|---------------|--------------0-|
|----------------|-3-------(3)---|----------------|

                                                        D.S. al Coda
  Gtr I
  +H.           E E   +H        +E  E E E   +H.           E E   +W
|-------------------|---------------------|-------------------|---------||
|-------------------|---------------3-3---|-------------------|---------||
|-(2)-----------2-2-|-(2)-------(2)-0-2-2-|-(2)-----------2-2-|-(2)-----||
|-(2)-----------2-2-|-(2)-------(2)-0-0-2-|-(2)-----------2-2-|-(2)-----||
|-(0)-----------0-0-|-(0)-------(0)-----0-|-(0)-----------0-0-|-(0)-----||
|-------------------|---------------------|-------------------|---------||
|
| Gtr II
|  E  E E E E E E E   +E  E E E  E  E E E   +E  E E E E E E E   +W
|-------------------|---------------------|-------------------|---------||
|-------------------|---------------------|-------------------|---------||
|-----------------2-|-(2)---------------2-|-(2)-------------2-|-(2)-----||
|-------5---4-0-2-2-|-(2)---5----4--0-0-2-|-(2)---5---4-0-2-2-|-(2)-----||
|-----0---0-------0-|-(0)-0---0---------0-|-(0)-0---0-------0-|-(0)-----||
|-------------------|---------------------|-------------------|---------||

  &
  +E  E E E H      +E  E E E H      H.      +E  E   +H     E  E  E E
|----------------|----------------|-3-------(3)---|-------------------||
|-----2-2-2------|-----2-2-2-2----|-3-------(3)-3-|-(3)---------------||
|-(2)-2-2-2-2----|-(2)-2-2-2-2----|-0-------(0)-2-|-(2)------------9--||
|-(2)-2-2-2-2----|-(2)-2-2-2-2----|-0-------(0)-0-|-(0)------12-11-9--||
|-(0)-0-0-0-0----|-(0)-0-0-0-0----|---------------|----------10--9-7--||
|----------------|----------------|-3-------(3)---|----------------0--||

 Bridge
      PM----------------------|
  +E  E E E E E E E   E E E E E  E  E E
|-------------------|-------------------|
|-------------------|-------------------|
|-(9)---------------|-----------------9-|
|-(9)---------------|-----------12-11-9-|
|-(7)-7-7-7-7-7-7-7-|-7-7-7-7-7-10--9-7-|
|-(0)-0-0-0-0-0-0-0-|-0-0-0-0-0-------0-|

      PM----------------------|
  +E  E E E E E E E   E E E E E  E  E E
|-------------------|--------------------|
|-------------------|--------------------|
|-(9)---------------|-----------------9--|
|-(9)---------------|-----------12-11-9--|
|-(7)-7-7-7-7-7-7-7-|-7-7-7-7-7-10--9-7--|
|-(0)-0-0-0-0-0-0-0-|-0-0-0-0-0-------0--|

  +W           +H.      +E  E   +W           +H.      +E  E
|------------|----------------|------------|-----------------|
|------------|----------------|------------|-----------------|
|-(9)--------|-(9)------(9)---|------------|-----------------|
|-(9)--------|-(9)------(9)-4-|-(4)--------|-(4)------(4)-5--|
|-(7)--------|-(7)------(7)-4-|-(4)--------|-(4)------(4)-5--|
|-(0)--------|-(0)------(0)-2-|-(2)--------|-(2)------(2)-3--|

  +W           +H.      +E  E   +W           +H     +E  E E E
|------------|----------------|------------|-------------------||
|------------|----------------|------------|-------------------||
|------------|--------------2-|-(2)--------|-(2)----(2)--------||
|-(5)--------|-(5)------(5)-2-|-(2)--------|-(2)----(2)-5-4-2--||
|-(5)--------|-(5)------(5)-0-|-(0)--------|-(0)----(0)-5-4-2--||
|-(3)--------|-(3)------(3)---|------------|------------3-2-0--||

 Solo
  E5                            F#5                                       G5
  Gtr I
   W                 +H.      E E   +W                         +H.      E E
   |                  |         |    |                          |         |

Продолжаем грести бабос на ботах в Telegram.
Только в этот раз есть вариант автоматизировать это дело, привлекая рефералов. Вы можете заработать если »

/ / / / / / Gtr II ~~~~~ H. E E +W E E E E E E E E +H. E E |-----------------|---------------|-------------------------|----------------| |-15b17--------12-|-(12)----------|-------12----11-12-11-11-|-(11)-----------| |-----------------|---------------|-------------------------|-------------9--| |-----------------|---------------|----12----12-------------|----------------| |-----------------|---------------|-------------------------|----------------| |-----------------|---------------|-------------------------|----------------| A5 +W +H. E E | | | / / / ~~~ +E E E E E Q. E E E E E Q E |----------------------|------------------------------| |-------------12-------|-12--12-14----[15]-17---15b17-| |-(9)-9-11-------14----|-----------14-----------------| |----------11----------|------------------------------| |----------------------|------------------------------| |----------------------|------------------------------| G5F#E5 +W +H E E E E | | | | | / / / / / ~~~~ ~~~~~~~ +H E E E E E E E E +Q. E |-----------------|-----------------------| |-(15)----8-------|--------------------7--| |-----------------|--------------------7--| |-----------5-5-5-|--4-5-4-------------7--| |-----------------|--------[7]-(7)--------| |-----------------|-----------------------| F#5 +W +H. E E +W | | | | / / / / |----6----| +W Q E E E S S S S S S S S S S S S S S S S S S S S S S S S |------------|------------------------|----------------------------------------| |-(7)--------|--8-----7-8---7h8p7---7-|--8p7---7h8p7---7h8---7h8---7h8---7h8p==| |-(7)--------|------9-----9-------9---|------9-------9-----9-----9-----9-------| |-(7)--------|------------------------|----------------------------------------| |------------|------------------------|----------------------------------------| |------------|------------------------|----------------------------------------| G5 +H. E E | | / / |-3--| |-3--| S S S E S S S S S S S S E S S S |----------------------------7--------| |--7----7h8---7h8p7---7h8h10---7h8h10-| |-----9-----9-------9-----------------| |-------------------------------------| |-------------------------------------| |-------------------------------------| +W | / |-3--| S S S S S S S S S S S S S S S S S |--7-----------7----10p8p7----7h8----7h8p7-| |----10-7h8h10---10--------10-----10-------| |------------------------------------------| |------------------------------------------| |------------------------------------------| |------------------------------------------| A5 +H. E E +W | | | / / / ~~~~~ |-3-| E S S S S S S S E S S E E +H S S S S S S S S |-10p8p7h8p7-----------------------|---------------------------------| |------------10p8p7h8p7-----15b17==|=(15)r------12-15-12----12-------| |-----------------------9-7--------|---------------------15----14-13-| |----------------------------------|---------------------------------| |----------------------------------|---------------------------------| |----------------------------------|---------------------------------| G5 F#5E5 +H E E E E +W | | | | | / / / / / ~~~~ |--3--| S S S S E E E E E E E +W |----------------------------------|---------| |----------------------------------|---------| |----14-14-12----------------------|---------| |-14----------14-13-12-------------|---------| |----------------------14-12-------|---------| |----------------------------15-12-|-(12)----| G5F#E5 +H +E E E E +H. E E | | | | | | | | / / / / / / / / ~~~~ +H +E E E E +E E E E E E E E |---------------------|-------------------| |---------------------|-------------------| |---------------------|-------------------| |---------------0---2-|-(2)---------------| |-----------------4-2-|-(2)---5-2-4-2-----| |-(12)----(12)-----0-|-(0)-0---------4-0-| G5F#E5 +H +E E E E +H. E E +W | | | | | | | | | / / / / / / / / / +E E E E E E E E +E E E E E E E E +H. Q |--------------------|-------------------|---------------|| |--------------------|-------------------|---------------|| |--------------------|-------------------|---------------|| |------------------2-|-(2)-------------2-|-(2)------2----|| |-------5-2--4-5-4-2-|-(2)-0-5-2-4-2---2-|-(2)------2----|| |-(0)-0------------0-|-(0)-----------4-0-|-(0)------0----|| Outro Chorus H. +E E +H. +E E +E E E E H +E E E E H 5x ||--3-------(3)---|----------------|----------------|-----------------|| ||o-3-------(3)-3-|-(3)------(3)---|-----2-2-2------|-----2-2-2------o|| ||--0-------(0)-2-|-(2)------(2)-2-|-(2)-2-2-2-2----|-(2)-2-2-2-2-----|| ||--0-------(0)-0-|-(0)------(0)-2-|-(2)-2-2-2-2----|-(2)-2-2-2-2-----|| ||o---------------|--------------0-|-(0)-0-0-0-0----|-(0)-0-0-0-0----o|| ||--3-------(3)---|----------------|----------------|-----------------|| W W W +Q. E Q Q |-3--------|----------|----------|-----------------*| |-3--------|-3--------|----------|-----------------*| |-0--------|-2--------|-2--------|-(2)-------------*| |-0--------|-0--------|-2--------|-(2)---7-7------*| |----------|----------|-0--------|-(0)---7-7------*| |-3--------|----------|----------|-------5-5------*| Duration Legend --------------- W - whole; H - half; Q - quarter; E - 8th; S - 16th; T - 32nd; X - 64th; a - acciaccatura + - note tied to previous; . - note dotted; .. - note double dotted Uncapitalized letters represent notes that are staccato (1/2 duration) Irregular groupings are notated above the duration line Duration letters will always appear directly above the note/fret number it represents the duration for. Duration letters with no fret number below them represent rests. Multi- bar rests are notated in the form Wxn, where n is the number of bars to rest for. Low melody durations appear below the staff Tablature Legend ---------------- h - hammer-on p - pull-off b - bend pb - pre-bend r - bend release (if no number after the r, then release immediately) / - slide into or out of (from/to "nowhere") s - legato slide S - shift slide - natural harmonic [n] - artificial harmonic n(n) - tapped harmonic ~ - vibrato tr - trill T - tap TP - trem. picking PM - palm muting n/ - tremolo bar dip; n = amount to dip n - tremolo bar down n/ - tremolo bar up /n - tremolo bar inverted dip = - hold bend; also acts as connecting device for hammers/pulls <> - volume swell (louder/softer) x - on rhythm slash represents muted slash o - on rhythm slash represents single note slash Misc Legend ----------- | - bar || - double bar ||o - repeat start o|| - repeat end *| - double bar (ending) : - bar (freetime) $ - Segno & - Coda Tempo markers - = BPM(8/16=s8/s16), where s8 = swing 8ths, s16 = swing 16ths *************************************************************************************** * Generated using Power Tab Editor by Brad Larsen - http://powertab.guitarnetwork.org * ***************************************************************************************








О сайтеАккордыХит-парадПоискУроки ФорумыИщу песню
ПрограммыСвежачок-сПодпискаСтатьи
Яндекс.Метрика