Табулатура W.A.S.P. | I Wanna Be Somebody  (2) гитара табулатуры уроки тексты песен W.A.S.P. текст lyrics песня аккорды песни ноты нота электрогитара струна  
   А Б В Г Д Е Ж З И К Л М Н О П Р С Т У Ф Х Ч Ш Ы Э Ю Я       Разные песни
1-9 A B C D E F G H I J K L M N O P Q R S T U V W Y Z      Все исполнители

    



группа W.A.S.P., Табулатура песни I Wanna Be Somebody (2)

Группа: W.A.S.P. - другие аккорды (67),   о группе (12 статей),   диски (23),   фотографии (38)
Табулатура песни: I Wanna Be Somebody (2)
Просмотров: 799
Подобрал: Judas (killer@bk.ru)




    
#----------------------------------PLEASE NOTE---------------------------------#
#This file is the author's own work and represents their interpretation of the #
#song. You may only use this file for private study, scholarship, or research. #
#------------------------------------------------------------------------------##

Author/Artist: W.A.S.P.
Title: I Wanna Be Somebody
Album: W.A.S.P.
Type: Guitar Tablature
Transcribed by: ANDREAS ЦHRN
Email: eva.ohrn@telia.com

#------------------------------------------------------------------------------#
#- Distributed by the site Chainsaw Charlie - http://wasptabs.planetaclix.pt  -#
#------------------------------------------------------------------------------#

I WANNA BE SOMEBODY
BY W.A.S.P.
FROM WASP ALBUM

TABBED BY ANDREAS ЦHRN

NOTE: TUNE GUITAR DOWN TO Eb

VERSE:  X 2
E|------------------------------------------------------------------|--------|
B|------------------------------------------------------------------|--------|
G|---0/2------------------------------------------------------------|---5----| 
D|---0/2------------------------------------------------------- X 3 |---5----|
A|---0/0-0-0-0-0-0-0-0-0-0-0-0-0-0-0-0-0-0-0-0-0-0-0-0-0-0-0-0------|---3----|
E|------------------------------------------------------------------|--------|
        | P.M..................................................|

BRIDGE:
E|-----------------------------------------------------|
B|-----------------------------------------------------|
G|-------------7----9-7-5-4------------7----9-7-5-4----|
D|---3----5----7----7-5-3-2--3----5----7----7-5-3-2----|
A|---3----5----5-------------3----5----5---------------|
E|---1----3------------------1----3--------------------|

CHORUS:  X 4
E|---------------------------------------------|
B|---------------------------------------------|
G|---2-----------2-----------2-----7-----------|

Продолжаем грести бабос на ботах в Telegram.
Только в этот раз есть вариант автоматизировать это дело, привлекая рефералов. Вы можете заработать если »

D|---2-----------2-----------2--3--7-----------| A|---0-0-0-0-0-0-0-0-0-0-0-0-0--3--5--3-2-0----| E|------------------------------1--------------| | P.M.... | | P.M.... | VERSE: SAME AS ABOVE BRIDGE: SAME AS ABOVE CHORUS: SAME AS ABOVE BRIDGE: E|-----------------------------------------------| B|-----------------------------------------------| G|---5-5---7--7--7------------7--7--7--5-5--9----| D|---5-5---7--7--7--5-7--7-7--7--7--7--5-5--9----| A|---3-3---5--5--5--5-7--7-7--5--5--5--3-3--7----| E|------------------3-5--5-5---------------------| SOLO: SAME AS CHORUS CHORUS: X 4 E|--------------------------------| B|--------------------------------| G|---2----2---------7-------------| D|---2----2----3----7-------------| A|---0----0----3----5----3-2-0----| E|-------------1------------------| OUTRO: X 4 E|------------------------------| B|------------------------------| G|---9-------7-------5-4-0-2----| D|---7-------5-------3-2-0-0----| A|-----0-0-0---0-0-0------------| E|------------------------------|








О сайтеАккордыХит-парадПоискУроки ФорумыИщу песню
ПрограммыСвежачок-сПодпискаСтатьи
Яндекс.Метрика