Табулатура W.A.S.P. | L.o.v.e. Machine  (3) гитара табулатуры уроки тексты песен W.A.S.P. текст lyrics песня аккорды песни ноты нота электрогитара струна  
   А Б В Г Д Е Ж З И К Л М Н О П Р С Т У Ф Х Ч Ш Ы Э Ю Я       Разные песни
1-9 A B C D E F G H I J K L M N O P Q R S T U V W Y Z      Все исполнители

    



группа W.A.S.P., Табулатура песни L.o.v.e. Machine (3)

Группа: W.A.S.P. - другие аккорды (67),   о группе (12 статей),   диски (23),   фотографии (38)
Табулатура песни: L.o.v.e. Machine (3)
Просмотров: 1617
Подобрал: Judas (killer@bk.ru)




    
#----------------------------------PLEASE NOTE---------------------------------#
#This file is the author's own work and represents their interpretation of the #
#song. You may only use this file for private study, scholarship, or research. #
#------------------------------------------------------------------------------##
Author/Artist: W.A.S.P.
Title: L.O.V.E. Machine
Album: W.A.S.P.
Type: Guitar Tablature
Transcribed by: DeVampyr
Email: Unknown
#------------------------------------------------------------------------------#
#- Distributed by the site Chainsaw Charlie - http://wasptabs.planetaclix.pt  -#
#------------------------------------------------------------------------------#
                                L.O.V.E. MACHINE
                             As recorded by W.A.S.P.
                         (From the 1984 Album W.A.S.P.)
Words and Music by Blackie Lawless
Transcribed by DeVampyr
Gtr I (E A D G B E) - 'Gtr I'
Gtr II (E A D G B E) - 'Gtr II'
 Intro
  Rock Shuffle Q=144(8=s8)
 4/4
  Gtr I
                                        3
  W          +W           +W           +H.      E E
|----------|------------|------------|--------------|
|----------|------------|------------|--------------|
|-9--------|-(9)--------|-(9)--------|-(9)------7-9-|
|-9--------|-(9)--------|-(9)--------|-(9)------7-9-|
|-7--------|-(7)--------|-(7)--------|-(7)------5-7-|
|-0--------|-(0)--------|-(0)--------|-(0)----------|

    +H.      E E   +Q   H    E E  4x W          +W
||---------------|----------------||-0--------|-(0)----|
||o----------8---|---------------o||-0--------|-(0)----|
||--(9)------7-9-|-(9)-------7-9--||-9--------|-(9)----|
||--(9)--------9-|-(9)-------7-9--||-9--------|-(9)----|
||o-(7)--------7-|-(7)-------5-7-o||-7--------|-(7)----|
||---------------|------0---------||-0--------|-(0)----|

                            Verse
                          $
  +W           +W            Wx7
|-(0)--------|-(0)--------||--------|
|-(0)--------|-(0)--------||--------|
|-(9)--------|-(9)--------||--------|
|-(9)--------|-(9)--------||--------|
|-(7)--------|-(7)--------||--------|
|-(0)--------|-(0)--------||--------|

  H     Q   Q    W          +H     Q  Q    W
|--------------|----------|--------------|------|
|--------------|----------|--------------|------|
|------12--7--|-9--------|-(9)----9--7--|-5----|
|------12--7--|-9--------|-(9)----9--7--|-5----|
|------10--5--|-7--------|-(7)----7--5--|-3----|
|--------------|-0--------|-(0)----------|------|

  +H     Q  Q    W          +H     Q  Q    W          +H     Q  Q
|--------------|----------|--------------|----------|--------------||
|--------------|----------|--------------|----------|--------8-----||
|-(5)----5--5--|-7--------|-(7)----7--7--|-9--------|-(9)----7--7--||
|-(5)----5--5--|-7--------|-(7)----7--7--|-9--------|-(9)----5--7--||
|-(3)----3--3--|-5--------|-(5)----5--5--|-7--------|-(7)-------5--||
|--------------|----------|--------------|----------|--------------||

   Chorus
                                                    1.,2.,3.
    E E +Q    E Q.     E E +Q    E Q.     W          W     4x
||-------------------|------------------|----------|-------||
||o------------------|------------------|----------|------o||
||--7-9-(9)---------|-7-9-(9)---------|-5--------|-7-----||
||--7-9-(9)--2-2----|-7-9-(9)--2-2----|-5--------|-7-----||
||o-5-7-(7)--2-2----|-5-7-(7)--2-2----|-3--------|-5----o||
||------------0-0----|-----------0-0----|----------|-------||

  4.
                                              To Coda
  W          W          +H.      Q    W          +W
|----------|----------|-------------|----------|---------|
|----------|----------|-------------|----------|---------|
|-7--------|-5--------|-(5)------5--|-7--------|-(7)-----|
|-7--------|-5--------|-(5)------5--|-7--------|-(7)-----|
|-5--------|-3--------|-(3)------3--|-5--------|-(5)-----|
|----------|----------|-------------|----------|---------|

                                    D.S. al Coda
                                        |3-|
  W          +W           +W           +E  Q H.
|-0--------|-(0)--------|-(0)--------|-(0)----------||
|-0--------|-(0)--------|-(0)--------|-(0)----------||
|-9--------|-(9)--------|-(9)--------|-(9)-9-9-----||
|-9--------|-(9)--------|-(9)--------|-(9)-9-9-----||
|-7--------|-(7)--------|-(7)--------|-(7)-7-7-----||
|-0--------|-(0)--------|-(0)--------|-(0)----------||
|
| Gtr II
| ~~~~~~~~~~~~~~~~~~~~~~~~~~~~
|                                       |3-|
| W          +W           +W            E  Q H.
|----------|------------|------------|-----x-x-----||
|----------|------------|------------|-----x-x-----||
|-9--------|-(9)--------|-(9)--------|--------------||
|----------|------------|------------|--------------||
|----------|------------|------------|--------------||
|----------|------------|------------|--------------||

 Solo
  &
  Gtr II
  W                      +Q      +Q      H
|----------------------|-----------------------|
|----------------------|-----------------------|
|-9--------------------|-(9)-----(9)-----9-----|
|-9b11-----------------|-(9)-----(9)-----9-----|
|----------------------|-----------------------|
|----------------------|-----------------------|
|
| Gtr I
| |--3---| |-3-|          |-3--|  |-3--|
| E    E E E E E Q  Q     E  E E  E  E E Q  Q
|----------------------|-----------------------|
|----------------------|-----------------------|
|-4----4-4-4-4-4-4--4--|--4--4-4--4--4-4----2--|
|-4----4-4-4-4-4-4--4--|--4--4-4--4--4-4-5--2--|
|-2----2-2-2-2-2-2--2--|--2--2-2--2--2-2-5--0--|
|----------------------|-----------------3-----|

                           ~
  |3|              |-3-|
  E Q   Q     +Q   E E E   W
|------------------------|-------------------|
|------------------------|-------------------|
|-7-9---7-----(7)--7h9p7-|-------------------|
|-7-9---7-----(7)--------|-9-----------------|
|------------------------|-------------------|
|------------------------|-------------------|
|
| |-3-| |-3-|              |-3-| |-3-|
| E E E E E E  Q   Q       E E E E E E Q  Q
|------------------------|-------------------|
|------------------------|-------------------|
|-4-4-4-4-4-4--4---4-----|-4-4-4-4-4-4-5--2--|
|-4-4-4-4-4-4--4---4-----|-4-4-4-4-4-4-5--2--|
|-2-2-2-2-2-2--2---2-----|-2-2-2-2-2-2-3--0--|
|------------------------|-------------------|

                                            ~~~~~~~
                     |-3--|
   H.                E  E E     Q           H            E  E
|---------------------------|-------------------------------------|
|-10b12----------------10p8-|-[10]b12-----[10]b12----------10pb12r|
|---------------------------|-------------------------------------|
|---------------------------|-------------------------------------|
|---------------------------|-------------------------------------|
|---------------------------|-------------------------------------|
|
|  |--3---| |-3-|               |---3---|   |---3---|
|  E    E E E E E Q  Q          E     E E   E     E E Q  Q
|---------------------------|-------------------------------------|
|---------------------------|-------------------------------------|
|--4----4-4-4-4-4-4--4------|---4-----4-4---4-----4-4-5--2--------|
|--4----4-4-4-4-4-4--4------|---4-----4-4---4-----4-4-5--2--------|
|--2----2-2-2-2-2-2--2------|---2-----2-2---2-----2-2-3--0--------|
|---------------------------|-------------------------------------|

           |----3----|           |-3-|
   +Q      E     +E  E  S S S  S E E E
|--------------------------------------|
|-(10)-----9pb10r(9)-7-10-9-7----------|
|-----------------------------10-9p7---|
|------------------------------------9-|
|--------------------------------------|
|--------------------------------------|
|
|   |-3--|
|   E  E E Q            Q        Q
|--------------------------------------|
|--------------------------------------|
|---4--4-4-4------------4--------4-----|
|---4--4-4-4------------4--------4-----|
|---2--2-2-2------------2--------2-----|
|--------------------------------------|

              ~~~~~~~~~~~~~~~~    ~~~~~~~

Продолжаем грести бабос на ботах в Telegram.
Только в этот раз есть вариант автоматизировать это дело, привлекая рефералов. Вы можете заработать если »

|-3--| |-3--| |-3-| |-3-| |-3-| |-3--| Q. E +H Q +E E E Q +E E E E E E E E E E E E E E E |--------------------|-----------------------|---------------------------| |-7------------------|-----------------------|-------7---7-8-7-8-10-8-10-| |-7------------------|-9--(9)-7-9-9--(9)-7-9-|-9-7-9---9-----------------| |----------9-(9)-----|-----------------------|---------------------------| |--------------------|-----------------------|---------------------------| |--------------------|-----------------------|---------------------------| | | |-3--| |-3-| | E E E Q Q Q Q Q Q Q E E E Q Q Q |--------------------|-----------------------|---------------------------| |--------------------|-----------------------|---------------------------| |-4--4-4-4----4---4--|-5---5------5---5------|-5-5-5-5-----5------5------| |-4--4-4-4----4---4--|-5---5------5---5------|-5-5-5-5-----5------5------| |-2--2-2-2----2---2--|-3---3------3---3------|-3-3-3-3-----3------3------| |--------------------|-----------------------|---------------------------| |---3---| |---3---| Q E +E +E E H |---------------------------------------| |-10b12---10b12==(10)r(10)-8-10b12======| |---------------------------------------| |---------------------------------------| |---------------------------------------| |---------------------------------------| | | |---3---| | E E E Q Q Q |---------------------------------------| |---------------------------------------| |--5----5--5-------5----------5------5--| |--5----5--5-------5----------5------5--| |--3----3--3-------3----------3------3--| |---------------------------------------| |-3--| |3| |-3-| +Q +E E E Q E E E E +H.. E |------------------------------|--------------| |-(10)r====(10)-8---10-8-7-----|------------8-| |-----------------9--------7---|--------------| |----------------------------9-|-(9)----------| |------------------------------|--------------| |------------------------------|--------------| | | |-3--| |-3--| | E E E E E E Q Q W |------------------------------|--------------| |------------------------------|--------------| |---5--5-5---5--5-5--5---5-----|--4-----------| |---5--5-5---5--5-5--5---5-----|--4-----------| |---3--3-3---3--3-3--3---3-----|--2-----------| |------------------------------|--------------| E E +H +E E E E +H. |----------------------------15-|-17b19-17b19==(17)------| |-10b12-10b12==(10)r====(10)----|------------------------| |-------------------------------|------------------------| |-------------------------------|------------------------| |-------------------------------|------------------------| |-------------------------------|------------------------| | | +H Q Q W |-------------------------------|------------------------| |--------------------3----------|------------------------| |-(4)----------------2----2-----|--4---------------------| |-(4)----------------0----2-----|--4---------------------| |-(2)---------------------0-----|--2---------------------| |-------------------------------|------------------------| ~~~ +H +H H. +S S S S |-(17)r===(17)-----|--------------------------| |------------------|-15-------(15)-12----12---| |------------------|------------------14------| |------------------|--------------------------| |------------------|--------------------------| |------------------|--------------------------| | | +H Q Q W |------------------|--------------------------| |-----------3------|--------------------------| |--(4)------2---2--|--4-----------------------| |--(4)------0---2--|--4-----------------------| |--(2)----------0--|--2-----------------------| |------------------|--------------------------| ~~~ ~~~~~~~~~~~~~~~~ H. +E S S W +W Wx2 |----------------------|-----------|-------------|--------| |-15--------(15)-12----|-12--------|-(12)--------|--------| |-------------------14-|-----------|-------------|--------| |----------------------|-----------|-------------|--------| |----------------------|-----------|-------------|--------| |----------------------|-----------|-------------|--------| | | +H Q Q W +W Wx2 |----------------------|-----------|-------------|--------| |--------3-------------|-----------|-------------|--------| |-(4)----2----2--------|--4--------|--(4)--------|--------| |-(4)----0----2--------|--4--------|--(4)--------|--------| |-(2)---------0--------|--2--------|--(2)--------|--------| |----------------------|-----------|-------------|--------| Outro Chorus 1.,2.,3. E E +Q E Q. E E +Q E Q. W W 4x ||-------------------|------------------|----------|-------|| ||o------------------|------------------|----------|------o|| ||--7-9-(9)---------|-7-9-(9)---------|-5--------|-7-----|| ||--7-9-(9)--2-2----|-7-9-(9)--2-2----|-5--------|-7-----|| ||o-5-7-(7)--2-2----|-5-7-(7)--2-2----|-3--------|-5----o|| ||------------0-0----|-----------0-0----|----------|-------|| 4. W W +H H W +H H |----------|----------|-------------|----------|--------------| |----------|----------|-------------|----------|--------------| |-7--------|-5--------|-(5)----5----|-7--------|-(7)----7----| |-7--------|-5--------|-(5)----5----|-7--------|-(7)----7----| |-5--------|-3--------|-(3)----3----|-5--------|-(5)----5----| |----------|----------|-------------|----------|--------------| |-3-| |-3-| W E Q E E E E E E E 4x W +W H. Q ||-----------|---------------------||----------|------------|------------*| ||o----------|--------------------o||----------|------------|------------*| ||-----------|-5-5-----------------||----------|------------|-9---------*| ||--2--------|-5-5--0-3p2p0--------||-2--------|-(2)--------|-9---------*| ||o-2--------|-3-3----------3p2p0-o||-2--------|-(2)--------|-7---------*| ||--0--------|---------------------||-0--------|-(0)--------|------------*| Duration Legend --------------- W - whole; H - half; Q - quarter; E - 8th; S - 16th; T - 32nd; X - 64th; a - acciaccatura + - note tied to previous; . - note dotted; .. - note double dotted Uncapitalized letters represent notes that are staccato (1/2 duration) Irregular groupings are notated above the duration line Duration letters will always appear directly above the note/fret number it represents the duration for. Duration letters with no fret number below them represent rests. Multi- bar rests are notated in the form Wxn, where n is the number of bars to rest for. Low melody durations appear below the staff Tablature Legend ---------------- h - hammer-on p - pull-off b - bend pb - pre-bend r - bend release (if no number after the r, then release immediately) / - slide into or out of (from/to "nowhere") s - legato slide S - shift slide - natural harmonic [n] - artificial harmonic n(n) - tapped harmonic ~ - vibrato tr - trill T - tap TP - trem. picking PM - palm muting n/ - tremolo bar dip; n = amount to dip n - tremolo bar down n/ - tremolo bar up /n - tremolo bar inverted dip = - hold bend; also acts as connecting device for hammers/pulls <> - volume swell (louder/softer) x - on rhythm slash represents muted slash o - on rhythm slash represents single note slash Misc Legend ----------- | - bar || - double bar ||o - repeat start o|| - repeat end *| - double bar (ending) : - bar (freetime) $ - Segno & - Coda Tempo markers - = BPM(8/16=s8/s16), where s8 = swing 8ths, s16 = swing 16ths *************************************************************************************** * Generated using Power Tab Editor by Brad Larsen - http://powertab.guitarnetwork.org * ***************************************************************************************








О сайтеАккордыХит-парадПоискУроки ФорумыИщу песню
ПрограммыСвежачок-сПодпискаСтатьи
Яндекс.Метрика