Табулатура W.A.S.P. | L.o.v.e. Machine  (2) гитара табулатуры уроки тексты песен W.A.S.P. текст lyrics песня аккорды песни ноты нота электрогитара струна  
   А Б В Г Д Е Ж З И К Л М Н О П Р С Т У Ф Х Ч Ш Ы Э Ю Я       Разные песни
1-9 A B C D E F G H I J K L M N O P Q R S T U V W Y Z      Все исполнители

    



группа W.A.S.P., Табулатура песни L.o.v.e. Machine (2)

Группа: W.A.S.P. - другие аккорды (67),   о группе (12 статей),   диски (23),   фотографии (38)
Табулатура песни: L.o.v.e. Machine (2)
Просмотров: 900
Подобрал: Judas (killer@bk.ru)




    
#----------------------------------PLEASE NOTE---------------------------------#
#This file is the author's own work and represents their interpretation of the #
#song. You may only use this file for private study, scholarship, or research. #
#------------------------------------------------------------------------------#
Author/Artist: W.A.S.P.
Title: L.O.V.E. Machine
Album: W.A.S.P.
Type: Guitar Tablature
Transcribed by: Martin Karlsson
Email: gibson_sg61@hotmail.com
#------------------------------------------------------------------------------#
#- Distributed by the site Chainsaw Charlie - http://wasptabs.planetaclix.pt  -#
#------------------------------------------------------------------------------#
Original source for this tablature: http://medlem.tripodnet.nu/Killahead/

Song: 		L.O.V.E. machine
Performer:	W.A.S.P.
Album: 		W.A.S.P. (1984)
Tab written by: Martin Karlsson (gibson_sg61@hotmail.com). 
Comments, questions but most important, corrections are welcomed
Tune down Ѕ step (one fret)
Oooooooohhh, yeah!
Intro
	    Fig 1	   Fig 2  Fig 3					End
Fade in E    D E    G  E    E     G    D   E   C      D	     E	  G    D
 e:--------|--------------|-----|-----------------------------------------|
 B:---/----|--------------|-----|-----------------------------------------|
 G:--/--9--|-7-9----12-9--|-9---|-12---7---9---5---5--7---7--9----12---7--|
 D:-<---9--|-7-9----12-9--|-9---|-12---7---9---5---5--7---7--9----12---7--|
 A:----7--|-5-7----10-7--|-7---|-10---5---7---3---3--5---5--7----10---5--|
 E:----0--|--------------|-0---|-----------------------------------------|
            4x------------|

Fig 4				       End  Fig 5    Fig 6
   D E   	  D E	 	C    D      C   D		   C  A
e:----------------------------|-----------|---------|--------------------|
B:----------------------------|-----------|---------|--------------------|
G:-7/9---9--9-----7/9---9--9--|-5----7----|-5---7---|--------------5--2--|
D:-7/9---9--9-----7/9---9--9--|-5----7----|-5---7---|--------------5--2--|
A:-5/7---7--7-----5/7---7--7--|-3----5----|-3---5---|-2-2-2-2-2-2--3--0--|
E:----------------------------|-----------|---------|-3x........|--------|
                                                     4x------------------|

Fig 7				End        Fig 8
		D  A	B    D   A    	   E   C		    E    E
e:--------------------|-------------|----|---|-------------------------|------|---|
B:--------------------|-------------|----|---|-------------------------|------|---|
G:--------------7--2--|-4----7------|----|---|-5--5--------------------|-9----|---|
D:--------------7--2--|-4----7---7--|----|-2-|-5--5--2-3-2----------2--|-9----|---|

Продолжаем грести бабос на ботах в Telegram.
Только в этот раз есть вариант автоматизировать это дело, привлекая рефералов. Вы можете заработать если »

A:-3-3-3-3-3-3--5--0--|-2----5---7--|----|-2-|-3--3--------3-2------2--|-7----|---| E:--------------------|----------5--|----|-0-|-----------------3-2--0--|-0----|---| 7x--------| 4x-----------| 3x-----------------------| Riff like this: Intro: Fig 1 4x Verse: Fig 2 Fig 3 Chorus: Fig 4 4x Fig 5 Verse: Fig 2 Fig 3 Chorus: Fig 4 4x Solo: Fig 6 Fig 7 Chorus: Fig 4 4x Fig 5 Fig 8 Lyrics: Lady have you known me The perfect love machine I'm Virgo, My Leo's rising ,Venus made me King That trail of broken hearts They all belong to me Magic runs through my fingers One touch you'll see L.O.V.E All I need's my love machine L.O.V.E All I need's my love machine tonight, tonight What can I do for you Am I your wildest dream What do I move in you Am I what I seem My eyes they lie and you cry Love brings you pain And if you try to love me You'll not feel the same L.O.V.E All I need's my love machine L.O.V.E All I need's my love machine tonight, tonight








О сайтеАккордыХит-парадПоискУроки ФорумыИщу песню
ПрограммыСвежачок-сПодпискаСтатьи
Яндекс.Метрика