Табулатура W.A.S.P. | L.o.v.e. Machine гитара табулатуры уроки тексты песен W.A.S.P. текст lyrics песня аккорды песни ноты нота электрогитара струна  
   А Б В Г Д Е Ж З И К Л М Н О П Р С Т У Ф Х Ч Ш Ы Э Ю Я       Разные песни
1-9 A B C D E F G H I J K L M N O P Q R S T U V W Y Z      Все исполнители

    



группа W.A.S.P., Табулатура песни L.o.v.e. Machine

Группа: W.A.S.P. - другие аккорды (67),   о группе (12 статей),   диски (23),   фотографии (38)
Табулатура песни: L.o.v.e. Machine
Просмотров: 845
Подобрал: Judas (killer@bk.ru)




    
#----------------------------------PLEASE NOTE---------------------------------#
#This file is the author's own work and represents their interpretation of the #
#song. You may only use this file for private study, scholarship, or research. #
#------------------------------------------------------------------------------##
Author/Artist: W.A.S.P.
Title: L.O.V.E. Machine
Album: W.A.S.P.
Type: Guitar Tablature
Transcribed by: Jani Ylikangas
Email: jylikangas@yahoo.com
#------------------------------------------------------------------------------#
#- Distributed by the site Chainsaw Charlie - http://wasptabs.planetaclix.pt  -#
#------------------------------------------------------------------------------#
W.A.S.P.
'L.O.V.E. Machine'
transcribed by
  Jani Ylikangas (jylikangas@yahoo.com)
tune down half step
intro (play four times)
e|--------------------------|--------------------------------------------|
B|--------------------------|--------------------------------------------|
G|o--7--9-------12-9-------o|--9-----------------------------------------|
D|o--7--9-------12-9-------o|--9-----------------------------------------|
A|---5--7-------10-7--------|--7-----------------------------------------|
E|--------------------------|--------------------------------------------|
verse (first four bars bass plays E, C, D, E then guitar comes in...)
e|-----------------------------------------------------------------------|
B|-----------------------------------------------------------------------|
G|--12--7---9------9--5--------5--7-------7--9---------------------------|
D|--12--7---9------9--5--------5--7-------7--9---------------------------|
A|--10--5---7------7--3--------3--5-------5--7---------------------------|
E|-----------------------------------------------------------------------|
chorus
e|---------|-------------------------------------------------------------|
B|---------|-------------------------------------------------------------|
G|---12--7-|o-7--9-------7--9-------5---------7-------------------------o|
D|---12--7-|o-7--9--9-9--7--9--9-9--5---------7-------------------------o|
A|---10--5-|--5--7--7-7--5--7--7-7--3---------5--------------------------|
E|---------|--------0-0--------0-0---------------------------------------|
(these are the chords when Blackie sings "tonight, tonight")
e|-----------------------------------------------------------------------|
B|-----------------------------------------------------------------------|
G|---5----------7--------------------------------------------------------|
D|---5----------7--------------------------------------------------------|
A|---3----------5--------------------------------------------------------|

Продолжаем грести бабос на ботах в Telegram.
Только в этот раз есть вариант автоматизировать это дело, привлекая рефералов. Вы можете заработать если »

E|-----------------------------------------------------------------------| solo backing (play triplets) e|-----------------------------------------------------------------------| B|-----------------------------------------------------------------------| G|o--------------------------------------5---2--------------------------o| D|o--4-4-4-4-4-4-4-4-4-4-4-4-4-4-4-4-4-4-5---2--------------------------o| A|---2-2-2-2-2-2-2-2-2-2-2-2-2-2-2-2-2-2-3---0---------------------------| E|-----------------------------------------------------------------------| * * * * * * * * * * * * * * * * * * e|-----------------------------------------------------------------------| B|-----------------------------------------------------------------------| G|-----------------------------------------------------------------------| D|---5-5-5-5-5-5-5-5-5-5-5-5-5-5-5-5-5-5-5-5-5-5-5-5---------------------| A|---3-3-3-3-3-3-3-3-3-3-3-3-3-3-3-3-3-3-3-3-3-3-3-3---------------------| E|-----------------------------------------------------------------------| * * * * * * * * * * * * * * * * * * * * * * * * e|-----------------------------------------------------------------------| B|-----------------------------------------------------------------------| G|---------------------------------------7---2---4-----------------------| D|---5-5-5-5-5-5-5-5-5-5-5-5-5-5-5-5-5-5-7---2---4-----------------------| A|---3-3-3-3-3-3-3-3-3-3-3-3-3-3-3-3-3-3-5---0---2-----------------------| E|-----------------------------------------------------------------------| * * * * * * * * * * * * * * * * * * e|-----------------------------------------------------------------------| B|-----------------------------------------------------------------------| G|o--7--2--4------------------------------------------------------------o| D|o--7--2--4------------------------------------------------------------o| A|---5--0--2-------------------------------------------------------------| E|-----------------------------------------------------------------------| ending e|-----------------------------------------------------------------------| B|-----------------------------------------------------------------------| G|o---4-------------5---5-----------------------------------------------o| D|o---2-------------5---5-----0-3-2-0-----------------------------------o| A|------------------3---3-------------3-2-0------------------------------| E|-----------------------------------------------------------------------| then an E5 chord and that's it!








О сайтеАккордыХит-парадПоискУроки ФорумыИщу песню
ПрограммыСвежачок-сПодпискаСтатьи
Яндекс.Метрика