Табулатура W.A.S.P. | I Wanna Be Somebody гитара табулатуры уроки тексты песен W.A.S.P. текст lyrics песня аккорды песни ноты нота электрогитара струна  
   А Б В Г Д Е Ж З И К Л М Н О П Р С Т У Ф Х Ч Ш Ы Э Ю Я       Разные песни
1-9 A B C D E F G H I J K L M N O P Q R S T U V W Y Z      Все исполнители

    



группа W.A.S.P., Табулатура песни I Wanna Be Somebody

Группа: W.A.S.P. - другие аккорды (67),   о группе (12 статей),   диски (23),   фотографии (38)
Табулатура песни: I Wanna Be Somebody
Просмотров: 915
Подобрал: Judas (killer@bk.ru)




    
Author/Artist: W.A.S.P.
Title: I Wanna Be Somebody
Album: W.A.S.P.
Type: Guitar Tablature
Transcribed by: Jani Ylikangas
Email: jylikangas@yahoo.com
#------------------------------------------------------------------------------#
#-   -#
#-----------------------------------------------------------------------------
e|-----------------------------------------------------------------------|
B|-----------------------------------------------------------------------|
G|-----------------------0-2-----------------------0-2-------------------|
D|-----------------------0-2-----------------------0-2-------------------|
A|-000000000000000000000-----000000000000000000000-----------------------|
E|-----------------------------------------------------------------------|
   *********************     *********************
e|-----------------------------------------------------------------------|
B|-----------------------------------------------------------------------|
G|-----------------------------------------------------------------------|
D|-----------------------------7------7---5---4--------------------------|
A|-000000000000000000000000000-5------5---3---2---5----------------------|
E|------------------------------------------------3----------------------|
   ***************************
bridge
e|-----------------------------------------------------------------------|
B|-----------------------------------------------------------------------|
G|--------2------------------2------------------7-----7------------------|
D|-3------2-----------3------2-----------3------7-----7------------------|
A|-3------0---5-3-2---3------0---5-3-2---3------5-----5------------------|
E|-1----------------3-1----------------3-1-------------------------------|
chorus and solo backing
e|-----------------------------------------------------------------------|

Продолжаем грести бабос на ботах в Telegram.
Только в этот раз есть вариант автоматизировать это дело, привлекая рефералов. Вы можете заработать если »

B|-----------------------------------------------------------------------| G|-2---------------------------7-----------------------------------------| D|-2------2------2------3------7---2p0-----------------------------------| A|-0---0000---0000------3------5-------3-2p0-----------------------------| E|----------------------1--------------------3---------------------------| *** *** interlude e|-----------------------------------------------------------------------| B|-----------------------------------------------------------------------| G|-----------------------------------------------------------------------| D|-2---7---5---7-5-4---2------2---7---5---7-5-4--------------------------| A|-0-5-5---3---5-3-2-5-0------0-5-5---3---5-3-2-5-2----------------------| E|---3---------------3----------3---------------3-0----------------------| chorus after the solo e|-----------------------------------------------------------------------| B|-----------------------------------------------------------------------| G|-----------------------------------------------------------------------| D|-2---2-------7---2p0---------------------------------------------------| A|-0---0---3---5-------3-2p0---------------------------------------------| E|---------1-----------------3-------------------------------------------| ending e|-----------------------------------------------------------------------| B|-----------------------------------------------------------------------| G|-9---------7---------5---4---------------------------------------------| D|-7---------5---------3---2---5---7-------------------------------------| A|-----0-0-0-----0-0-0---------3---5-------------------------------------| E|-----------------------------------------------------------------------| * * * * * *








О сайтеАккордыХит-парадПоискУроки ФорумыИщу песню
ПрограммыСвежачок-сПодпискаСтатьи
Яндекс.Метрика