Табулатура Metallica | Aint My Bitch гитара табулатуры уроки тексты песен Metallica текст lyrics песня аккорды песни ноты нота электрогитара струна  
   А Б В Г Д Е Ж З И К Л М Н О П Р С Т У Ф Х Ч Ш Ы Э Ю Я       Разные песни
1-9 A B C D E F G H I J K L M N O P Q R S T U V W Y Z      Все исполнители in english

    



группа Metallica, Табулатура песни Aint My Bitch

Группа: Metallica - другие аккорды (225),   о группе (32 статей),   диски (11),   фотографии (49)
Табулатура песни: Aint My Bitch
Просмотров: 2855
Прислал: xAL (xal@akkords.ru)




    
1)
--------------------------------|------------------|------------------|
----------12--14--14r---12------|------------------|------------------|
----------12--14--14r---12--12--|------------------|------------------|
----12/14-------------------14--|------------------|------------------|
--------------------------------|------------------|------------------|
--------------------------------|------------------|------------------|

----------------------|------------------------------|--------------------|
--------------14--12--|----12--14--12----12--12h-13--|--14----------------|
--------------14--12--|----12--14--12----12--12h-13--|--14----------------|
----------------------|------------------------------|--------------------|
----------------------|------------------------------|--------------------|
----------------------|------------------------------|--------------------|

2) solo             w/slide
------------------|-------------------|---------------------------|
------------------|-------------------|---------------------------|
------------------|--4/---------------|--11--------11/-9------11/-|
------------------|--4/---------------|--11---------------11------|
------------------|-------------------|---------------------------|
------------------|-------------------|---------------------------|

-----------------------|----------------------------|-------------------------|
-------------------11--|----------11----12----13----|----13/14------------14/-|
------------9/-11------|----------------------------|-------------------------|
-----------------------|----------------------------|-------------------------|
-----------------------|----------------------------|-------------------------|
-----------------------|----------------------------|-------------------------|

----------14--------------14------|----------14--------------14------|
--12/-14------14/-12/-14------14/-|--12/-14------14/-12/-14------14/-|
----------------------------------|----------------------------------|
----------------------------------|----------------------------------|
----------------------------------|----------------------------------|
----------------------------------|----------------------------------|

----------14--------------14----|--14/-------17--------|
--12/-14------14/-12/-14--------|--14/-----------------|
--------------------------------|----------------------|
--------------------------------|----------------------|
Узнай ВСЕ о своем друге в ВК или FB
--------------------------------|----------------------| --------------------------------|----------------------| --------16------------16------|------16--------16--------| --14/16-------16----------16--|----------16--------16/---| ------------------------------|--------------------------| ------------------------------|--------------------------| ------------------------------|--------------------------| ------------------------------|--------------------------| --17/19-----------------------|------------------|-----------------------| --------19/-------------10/12-|------------------|--5/7/----5--9/---7----| ----------------7/9/----------|------------------|-----------------------| ------------------------------|------------------|-----------------------| ------------------------------|------------------|-----------------------| ------------------------------|------------------|-----------------------| ----------11/-14----------|-----------------------| --12/-11------------------|--5/7/----5--9/---7----| --------------------------|-----------------------| --------------------------|-----------------------| --------------------------|-----------------------| --------------------------|-----------------------| ----------11/-14--14/---15/19/--|--15/19---------------|------------------| --12/-11------------------------|----------------------|------------------| --------------------------------|----------------------|------------------| --------------------------------|----------------------|------------------| --------------------------------|----------------------|------------------| --------------------------------|----------------------|------------------| --17/19/------8/12-------|-----------------------|-------------------| -------------------------|--10/12/----7/---------|--9----------------| -------------------------|------------7/---------|--9----------------| -------------------------|-----------------------|-------------------| -------------------------|-----------------------|-------------------| -------------------------|-----------------------|-------------------|

найти лекарство
список лекарств

Создание интернет магазина цена

Услуги по созданию, поддержке и продвижению сайтов

recommerce.by

Zebragk gx 430 t

zebragk gx 430 t

tcspb.ru








О сайтеАккордыХит-парадПоискУроки ФорумыИщу песню
ПрограммыСвежачок-сПодпискаСтатьи
Яндекс.Метрика