Табулатура Metallica | Eye Of The Beholder гитара табулатуры уроки тексты песен Metallica текст lyrics песня аккорды песни ноты нота электрогитара струна  
   А Б В Г Д Е Ж З И К Л М Н О П Р С Т У Ф Х Ч Ш Ы Э Ю Я       Разные песни
1-9 A B C D E F G H I J K L M N O P Q R S T U V W Y Z      Все исполнители in english

    



группа Metallica, Табулатура песни Eye Of The Beholder

Группа: Metallica - другие аккорды (225),   о группе (32 статей),   диски (11),   фотографии (49)
Табулатура песни: Eye Of The Beholder
Просмотров: 1451
Прислал: xAL (xal@akkords.ru)




    
Eye Of The Beholder
1)
------------------------------------|-------------------------------------|
----10--8h10h8-----13----10--8h10h8-|----------10--8h10h8-----13----------|
----10--9h10h9-10--12----10--9h10h9-|--10--9---10--9h10h9-10--12--10--9---|
---------------12-------------------|--12--10-------------12------12--10--|
------------------------------------|-------------------------------------|
------------------------------------|-------------------------------------|

--------------------------------------|-------------------------------------|
------10--8h10h8-----13----10--8h10h8-|----------10--8h10h8-----13----------|
--10--10--9h10h9-10--12----10--9h10h9-|--10--9---10--9h10h9-10--12--10--9---|
--12-------------12-------------------|--12--10-------------12------12--10--|
--------------------------------------|-------------------------------------|
--------------------------------------|-------------------------------------|

-------------------------------|-------------------------------------|
-----------------5-------------|--------------------5----------------|
-----5--4h5h4---------5--4h5h4-|--------5--4h5h4-------5h4----5h4----|
--7-----------7----------------|--7--5-----------7---------7------7--|
-------------------------------|-------------------------------------|
-------------------------------|-------------------------------------|

-------------------------------|---------------------------|
-----------------5-------------|-------------------5-------|
-----5--4h5h4---------5--4h5h4-|--------5h4-5h4-------5----|
--7-----------7----------------|--7--5----------7----------|
-------------------------------|---------------------------|
-------------------------------|---------------------------|

--------------------------------------|-------------------------------------|
------10--8h10h8-----13----10--8h10h8-|----------10--8h10h8-----13----------|
------10--9h10h9-10--12----10--9h10h9-|--10--9---10--9h10h9-10--12--10--9---|
--12-------------12-------------------|--12--10-------------12------12--10--|
--------------------------------------|-------------------------------------|
--------------------------------------|-------------------------------------|

--------------------------------------|-----------------------------------------|-------|
------10--8h10h8-----13----10--8h10h8-|----------10--8h10h8/6--5--6h5----6h5----|-------|
--10--10--9h10h9-10--12----10--9h10h9-|--10--9---10--9h10h9/7--5--5h4-7--5h4-5--|-------|
--12-------------12-------------------|--12--10-----------------------7------5--|--7/---|
--------------------------------------|-----------------------------------------|--7/---|
--------------------------------------|-----------------------------------------|-------|

2)
  trem.bar
  ...4../.2,5../2,5/
   
Узнай ВСЕ о своем друге в ВК или FB
-----------------------|---------------------22b-| -----------------------|-------------------------| --2----4----9----11----|--22b-----22b------x-----| -----------------------|-------------------------| -----------------------|-------------------------| -----------------------|-------------------------| ------22b-----19h22h19-18---18-|--18-19-18-15----15-15h18h15/14--------| -------------------------------|---------------------------------------| -------------------------------|---------------------------------------| -------------------------------|---------------------------------------| -------------------------------|---------------------------------------| -------------------------------|---------------------------------------| --14h15h14----14-----------------------------------| -----------17----17-15-14----15h14-----------15h14-| --------------------------16-------16-15-16--------| ---------------------------------------------------| ---------------------------------------------------| ---------------------------------------------------| --------------------------------------------| ------------15h14-----------15h14-----------| --16-15-16--------16-15-16--------16-15-16--| --------------------------------------------| --------------------------------------------| --------------------------------------------| --------------------14-15-14h15h14----14-15-18--18-| --15h14----14-15-17----------------17--------------| --------16-----------------------------------------| ---------------------------------------------------| ---------------------------------------------------| ---------------------------------------------------| Harm +trem.bar --19h18h15-19h18h15-19h18h15-19h18h15-----------| --------------------------------------19--------| --------------------------------------19--------| ------------------------------------------------| ------------------------------------------------| ------------------------------------------------|

лекарство в аптеке
список лекарств






О сайтеАккордыХит-парадПоискУроки ФорумыИщу песню
ПрограммыСвежачок-сПодпискаСтатьи
Яндекс.Метрика