Аккорды Wilco | Birds And Ships гитара табулатуры уроки тексты песен Wilco текст lyrics песня аккорды песни ноты нота электрогитара струна  
   А Б В Г Д Е Ж З И К Л М Н О П Р С Т У Ф Х Ч Ш Ы Э Ю Я       Разные песни
1-9 A B C D E F G H I J K L M N O P Q R S T U V W Y Z      Все исполнители

    



группа Wilco, Аккорды песни Birds And Ships

Группа: Wilco - другие аккорды (89),   диски (6),   фотографии (7)
Аккорды песни: Birds And Ships
Просмотров: 936
Подобрал: Paul Carey




    
Riff A) Intro and Verses
E|-----------------------------------------------------------|
B|-----------------------------------------------------------|
G|-----------------------------------------------------------|
D|---0-2-4-4-2-2-0-2-4-0---------0-4-0-2-0-2-4-5-4-2---------|
A|-0------0-0-0-0--------0-5-4-2--------------0--------------|
E|-----------------------------------------------------------|

Riff B) "Birds may be singing.."
E|-----------------------------------------------------------|
B|-----------------------------------------------------------|
G|--2-2-4-4-2------------------------------------------------|
D|---0-0-0-0-4-2-0-------0-4-0-2-0-2-4-5-4-2-----------------|
A|-----------------5-4-2-------------------------------------|
E|-----------------------------------------------------------|

This is how the those riffs appear in the tune:
Intro - Riff A x2
Riff A

Продолжаем грести бабос на ботах в Telegram.
Только в этот раз есть вариант автоматизировать это дело, привлекая рефералов. Вы можете заработать если »

The birds are singing in your eyes today Sweet flowers blossom in your smile Riff A The wind and sun are in the words you say Where might your lonesome lover be? Riff B Birds may be singing in my eyes this day Sweet flowers blossom when I smile Riff A But my soul is stormy and my heart blows wild My sweetheart rides a ship on the sea. Billy Bragg plays Riff B solo Riff A Though my soul is stormy and my heart blows wild Where might my lonesome lover be?








О сайтеАккордыХит-парадПоискУроки ФорумыИщу песню
ПрограммыСвежачок-сПодпискаСтатьи
Яндекс.Метрика