Аккорды Radiohead | Polyethylene Pt 1& Pt2 гитара табулатуры уроки тексты песен Radiohead текст lyrics песня аккорды песни ноты нота электрогитара струна  
   А Б В Г Д Е Ж З И К Л М Н О П Р С Т У Ф Х Ч Ш Ы Э Ю Я       Разные песни
1-9 A B C D E F G H I J K L M N O P Q R S T U V W Y Z      Все исполнители in english

    



группа Radiohead, Аккорды песни Polyethylene Pt 1& Pt2

Продолжаем грести бабос на ботах в Telegram.
Только в этот раз есть вариант автоматизировать это дело, привлекая рефералов. Вы можете заработать если »

Группа: Radiohead - другие аккорды (189),   о группе (6 статей),   диски (9),   фотографии (134)
Аккорды песни: Polyethylene Pt 1& Pt2
Просмотров: 1226
Подобрал: Lampa (killerlamp@mail.ru)




    
Bm                        A                        G                     D                    Em                 Em
E-|----------2-------:--------0------0---:-----------3------:-----2-------2----:----------0------------0-----0--:----|
B-|----------3-------:--------2------2---:-----------0------:-----3-------3----:----------0------------0-----0--:----|
G-|-----4-------4----:------------2------:-------0------0---:---------2--------:------0------0------------0-----:----|
D-|------------------:-------------------:------------------:--0---------------:--------------------------------:----|
A-|-2----------------:----0--------------:------------------:------------------:--------------------------------:----|
E-|------------------:-------------------:--3---------------:------------------:--0----------------0------------:----|
F#m                 F#m
E-|:----------2------------2------2---------|
B-|:----------2------------2------2---------|
G-|:------2------2------------2-------------|
D-|:----------------------------------------|
A-|:----------------------------------------|
E-|:--2----------------2--------------------|
And on the lyrics it looks like this:
Go
Bm         A            G                 Em   Em            F#m F#m
Tears of joy, now, scare ourselves of all that you want to be____________
Bm        A        G          
Just got paid and now you're going
Em        Em        F#m     F#m
How long should you be?_________If I get
Bm     A        G     D  Em  F#m F#m
scared I'll just call you___________
Bm      A         G        
And I need your glow as I unsettle
Em       Em               F#m      F#m
Oh, but I'll always feel, I will always feel
Right, one. two. three. four_
Chords used:
Bm-  X-2-4-4-3-2
1st-    X-0-2-2-2-0
G-     3-2-0-0-0-3
D-     X-X-0-3-2-3
Em-  0-2-2-0-0-0
F#m-2-4-4-2-2-2
If anyone have any corrections/questions just send them to me,
Igal (chak@netvision.net.il)
================================================================================
Part TWO
Intro (clean)                                                 (dist)
 A               Asus4 A       Asus4 A                       sim.
e-------------------------------------------------------------------------------------------------------------
B-2------------------3-2--2--2-2-3-2--2--2---------------------3-2--2--2-2-3-2--2--2--------------------------
G-2-0----------------2-2--2--2-2-2-2--2--2--2-0----------------2-2--2--2-2-2-2--2--2----Riff 1 (2nd part 1st)-
D-2---3-2-0----------2-2--2--2-2-2-2--2--2------3-2-0----------2-2--2--2-2-2-2--2--2--------------------------
A-0---------3-2-0----0-0--0--0-0-0-0--0--0------------3-2-0----0-0--0--0-0-0-0--0--0--------------------------
E-----------------3-----------------------------------------3-------------------------------------------------
Verse (clean)                                   (dist)
e-------------------------------------------------------------------------------------------------------------
B---------------------------------------------------3-3-3-3---3--3-3-3----------------------------------------
G----- Am ----- Em ----- F -- C ---- Bb --- A ----0h2-2-2-2-0h2--2-2-2------ Verse ---------------------------
D---------------------------------------------------0-0-0-0---0--0-0-0----------------------------------------
A-------------------------------------------------------------------------------------------------------------
E-------------------------------------------------------------------------------------------------------------
Chorus(?)
 B
e----------0-3-2-0--0---------------1-----2-------------------------------------------------------------------

Продолжаем грести бабос на ботах в Telegram.
Только в этот раз есть вариант автоматизировать это дело, привлекая рефералов. Вы можете заработать если »

B-4--4------------------------------1--3--3--2--2--2-2-3-2--2-2-2--------------------------------------------- G-4--4--4------------------------2--2--2--2--2--2--2-2-2-2--2-2-2-----(x2)------------------------------- D-4--4--4------------------------3-----0-----2--2--2-2-2-2--2-2-2--------------------------------------------- A-2--2--2------------------------3-----------0--0--0-0-0-0--0-0-0--------------------------------------------- E-----------------------3--2--0--1---------------------------------------------------------------------------- Riff 1 e------------------------------------------------------------------------------------------------------------- B--------------------3-2--2--2-2-3-2--2--2---------------------3-2--2--2-2-3-2--2--2-------------------------- G--2-0---------------2-2--2--2-2-2-2--2--2--2-0----------------2-2--2--2-2-2-2--2--2---(x2)--Versex2 Chorusx2 D------3-2-0---------2-2--2--2-2-2-2--2--2------3-2-0---0-2-3--2-2--2--2-2-2-2--2--2-------------------------- A------------3-2-0---0-0--0--0-0-0-0--0--0------------3--------0-0--0--0-0-0-0--0--0------------------Riff1x2 E------------------3------------------------------------------------------------------------------------------ Solo ~~~~~~~~~~~~.5 .5 .5 .5 e------------------------------------------------------------------------------------------------------------- B------------------------------------------------------------------------------------------------------------- G-14-14-14-14--14--12--10---9--7--5--7--9--10--9p7---7-9p7---7-9-9-9-9-9-9-9/-9/-9/-/9\--7h9-9p7---7-9-------- D--------------------------------------------------9-------9-------------------------------------9------------ A------------------------------------------------------------------------------------------------------------- E------------------------------------------------------------------------------------------------------------- e------------------------------------------------------------------------------------------------------------- B-------------------------------------------------------------------------------------14-15--17-17-17-17-17-17 G--9-9-9-9-9-9-9/-9/\-9/\---7-9-9-9--9-9-9--10--9--10--12--10--12--14--12--14--14/-14------------------------- D--------------------------9---------------------------------------------------------------------------------- A------------------------------------------------------------------------------------------------------------- E------------------------------------------------------------------------------------------------------------- grad. bend e------------------------------------------------------------------------------------------------------------- B-17-17--17/-17/-/17\--15h17-15\14---------------------------------------------------------------------------- G-----------------------------------2-2-2-2--2-0---------------------------------2-0-------------2h3---------- D------------------------------------------------3-2-0---0-2-3--3p2---2h3-3p2--0-----3-2-0-----2-----3////---- A------------------------------------------------------3-----------------------------------3-0---------------- E------------------------------------------------------------------------------------------------------------- 1------------------------------------------------------- 2-2---------------------3--2---------------------3--2--- 3-2-2-0-----------------2--2---2-0---------------2--2--- 4-2-----3-2-0-----------2--2-------3-2-0---0-2-3-2--2--- 5-0------------3-2-0----0--0-------------3-------0--0--- 6--------------------3---------------------------------- A Em F C Bb A Dsus4 D So sell your sin inside and come and live with me Leukemia, schizophrenia, polyethylene 1------------------------------------------------------- 2--4-4-4------------3--------------------3-2------------ 3--4-4-4------------0--------------------2-2------------ 4--4-4-4------------0--------------------2-2------------ 5--2-2-2---------------------------------0-0------------ 6-------------------3----2----0---1---0----------------- There is no significant risk to your health She used to be beautiful once as well Plastic bag, middle class, polyethylene Decaffeinate, unleaded, keep all surfaces clean

найти лекарство
список лекарств






О сайтеАккордыХит-парадПоискУроки ФорумыИщу песню
ПрограммыСвежачок-сПодпискаСтатьи
Яндекс.Метрика