Табулатура Radiohead | Scatterbrain гитара табулатуры уроки тексты песен Radiohead текст lyrics песня аккорды песни ноты нота электрогитара струна  
   А Б В Г Д Е Ж З И К Л М Н О П Р С Т У Ф Х Ч Ш Ы Э Ю Я       Разные песни
1-9 A B C D E F G H I J K L M N O P Q R S T U V W Y Z      Все исполнители in english

    



группа Radiohead, Табулатура песни Scatterbrain

Продолжаем грести бабос на ботах в Telegram.
Только в этот раз есть вариант автоматизировать это дело, привлекая рефералов. Вы можете заработать если »

Группа: Radiohead - другие аккорды (189),   о группе (6 статей),   диски (9),   фотографии (134)
Табулатура песни: Scatterbrain
Просмотров: 1096
Подобрал: Casey Jones




    

Intro
                                                                             
E||------|------|------|------||-----------------------|--------------------|
B||------|------|------|------||-----------------------|--------------------|
G||------|------|------|------||*--------9-------------|-------7------------|    * - - - - - *
D||------|------|------|------||*-----7----------------|----5---------------|    * - - - - - *  = Repeat from first to 2nd.
A||------|------|------|------||-----------------------|--------------------|
E||------|------|------|------||---8----------------7--|--------------------|                                          
                                               Verse
                                                                      
----------------------|---------------------||-----------------------|
----------------------|---------------------||-----------------------|
--------5-------------|-------4------------*||*--------9-------------|
-----3----------------|----2---------------*||*-----7----------------|
----------------------|---------------------||-----------------------|
--5----------------3--|---------------------||---8----------------7--|

                                                                 
--------------------|----------------------|--------------------|
--------------------|----------------------|--------------------|
-------7------------|--------5-------------|-------4------------|
----5---------------|-----3----------------|----2---------------|
--------------------|----------------------|--------------------|
--------------------|--5----------------3--|--------------------|
   
                                                                   3x
----------------------|--------------------|-----------------------||
----------------------|--------------------|-----------------0-----||
--------2-------------|-------0------------|--------2-------------*||          3x = no. of *repeats* (so played 4 times)
-----1----------------|----1---------------|-----1----------------*||
----------------------|--------------------|-----------------------||
--2----------------0--|--------------------|--0--------------------||
 Bridge
                                                                     
----------------------|----------------------|-----------------0----|
--------4--------3----|--2-----6--------5----|--0--------------0----|
-----3----------------|----------------------|-----0-----------0----|
----------------------|----------------------|--------2-------------|
----------------------|-----0----------------|----------------------|
--3-------------------|----------------------|--------0-------------|

                                                                     
--3--2----------------|----------------------|----------------------|
--------3--------3----|--------4--------3----|--------6--------5----|
--------2--------2----|-----3--3--------3----|-----6--6--------6----|
-----0--0--------0----|----------------------|----------------------|
----------------------|----------------------|----------------------|
----------------------|--3-------------------|--5-------------------|
  Verse
                                                                     
|-----------------------|--------------------|----------------------|
|-----------------------|--------------------|----------------------|
|*--------9-------------|-------7------------|--------5-------------|
|*-----7----------------|----5---------------|-----3----------------|
|-----------------------|--------------------|----------------------|
|---8----------------7--|--------------------|--5----------------3--|

                                                                 
--------------------|----------------------|--------------------|
--------------------|----------------------|--------------------|
-------4------------|--------2-------------|-------0------------|
----2---------------|-----1----------------|----1---------------|
--------------------|----------------------|--------------------|
--------------------|--2----------------0--|--------------------|
                           Bridge
                       3x                                                

Продолжаем грести бабос на ботах в Telegram.
Только в этот раз есть вариант автоматизировать это дело, привлекая рефералов. Вы можете заработать если »

-----------------------||-----------------------|-----------------------| -----------------0-----||-----------------------|-----------------------| --------2-------------*||--------5---------4----|--------7---------6----| -----1----------------*||-----2-----------------|-----4-----------------| -----------------------||-----------------------|-----------------------| --0--------------------||--3------------3-------|--6------------6-------| -------------------------|-------------------------|-----------------------| --------3----------------|--------2----3--2--0-----|-----------------------| -------------7--6--4-----|-------------------------|--------5---------4----| -----4-------------------|-----0-------------------|-----2-----------------| -------------------------|--0-------------------0--|-----------------------| --7-------------------7--|-------------------------|--3------------3-------| -----------------------||--------------------------| -----------------------||---------3----------------| --------7---------6----||*-------------7--6--4-----| -----4-----------------||*-----4-------------------| -----------------------||--------------------------| --6------------6-------||---7-------------------7--| 4x -----------------------------|-----------------------|------------------------|| ---------------10------------|-----------------------|------------------------|| -------------------11--------|--------5---------4----|--------7---------6----*|| ---------12------------12----|-----2-----------------|-----4-----------------*|| -----------------------------|-----------------------|------------------------|| --6/-10----------------------|--3------------3-------|--6------------6--------|| Outro --------------------------|--------------------------| --------------------------|--------------------------| --------------------------|------11------------------| --------12--14------12----|------------12----11h-12--| ----14--------------------|--------------------------| --------------------------|--------------------------| --------------------------|--------------------------| --------------------------|--------------------------| --------------------------|--------------------------| --------12--14------12----|--------12--14------12----| ----14--------------------|----14--------------------| --------------------------|--------------------------| --------------------------|--------------------------| --------------------------|--------------------------| --------------------------|------11------------------| --------12--14------12----|------------12----11h-12--| ----14--------------------|--------------------------| --------------------------|--------------------------| --------------------------|| --------------------------|| --------------------------|| --------12--14--------12--|| ----14--------------------|| --------------------------||

искать в аптеке
список лекарств






О сайтеАккордыХит-парадПоискУроки ФорумыИщу песню
ПрограммыСвежачок-сПодпискаСтатьи
Яндекс.Метрика