Аккорды Radiohead | Myxamatosis гитара табулатуры уроки тексты песен Radiohead текст lyrics песня аккорды песни ноты нота электрогитара струна  
   А Б В Г Д Е Ж З И К Л М Н О П Р С Т У Ф Х Ч Ш Ы Э Ю Я       Разные песни
1-9 A B C D E F G H I J K L M N O P Q R S T U V W Y Z      Все исполнители in english

    



группа Radiohead, Аккорды песни Myxamatosis

Продолжаем грести бабос на ботах в Telegram.
Только в этот раз есть вариант автоматизировать это дело, привлекая рефералов. Вы можете заработать если »

Группа: Radiohead - другие аккорды (189),   о группе (6 статей),   диски (9),   фотографии (134)
Аккорды песни: Myxamatosis
Просмотров: 1626
Подобрал: Ciaran McHale (johan.mickelin@home.se)




    

e---------------------------------------------
b---------------------------------------------
g-------------------4-5-----------------7-2-4-  
d-5-2-4-0-2-------------5-2-4-0-2-7-5-4-------
a-----------3-5-2-3---------------------------
e---------------------------------------------
That's it folks.
--------------------------------------------------------------------------------------------------------------------------
h = hammer on.
main riff
B----------------------------------
G----------------------------------
D----------------------------------
A-----------------------------2h3--

Продолжаем грести бабос на ботах в Telegram.
Только в этот раз есть вариант автоматизировать это дело, привлекая рефералов. Вы можете заработать если »

E---------------------------------- B-8--5--7--3--5--2--3--0-1-0------- intro, second time B-------------------------------------------- G-------------------------------------------- D-------------------------------------------- A-----------------------------5555500000222-- E-------------------5--3--0------------------ B-8--5--7--3--5------------------------------

искать в аптеке
список лекарств






О сайтеАккордыХит-парадПоискУроки ФорумыИщу песню
ПрограммыСвежачок-сПодпискаСтатьи
Яндекс.Метрика