Аккорды Radiohead | There There гитара табулатуры уроки тексты песен Radiohead текст lyrics песня аккорды песни ноты нота электрогитара струна  
   А Б В Г Д Е Ж З И К Л М Н О П Р С Т У Ф Х Ч Ш Ы Э Ю Я       Разные песни
1-9 A B C D E F G H I J K L M N O P Q R S T U V W Y Z      Все исполнители in english

    



группа Radiohead, Аккорды песни There There

Продолжаем грести бабос на ботах в Telegram.
Только в этот раз есть вариант автоматизировать это дело, привлекая рефералов. Вы можете заработать если »

Группа: Radiohead - другие аккорды (189),   о группе (6 статей),   диски (9),   фотографии (134)
Аккорды песни: There There
Просмотров: 3183
Подобрал: Tim LaBatte (timmyfat@hotmail.com)




    
INTRO
Guitar on top bass on bottom.
e|-------------------------0-2-------|
B|-----------------0-------------0---|
G|--------------2----2---------------|
D|------0----------------------------|	Repeat 4x, or you can change it up some doesn't matter.
A|-2------2--------------------------|
D|-----------------------------------|

G|------------------------------------|--------------------------------------|
D|------------------------------------|--------------------------------------|   Repeat 2 1/2 times 
A|--0-2---0-2---0-2---0-2-------------|--0-2---0-2---0-2---0-2---0-2---5---2-|
E|-------------------------------0-2--|--------------------------------------|

VERSE

e-|-0-|-0-|-0-|-0-|
B-|-0-|-3-|-0-|-0-|
G-|-2-|-4-|-0-|-0-|
D-|-0-|-x-|-0-|-2-|
A-|-2-|-5-|-x-|-2-|
D-|-0-|-5-|-4-|-2-|

Now this is the bass line for the chords that i posted earlier.
For guitar just strum chords, anyway you want just make sure you stay in time with the song.

             1st time						2nd time
G|------------------------------------------------------------------|---------------------------------------|
D|------------------------------------------------------------------|---------------------------------------|
A|--0-2--0-2--0-2--0-2--(0)--------7-5-----------------7-5----------|----------7--5----------------7-5---5--|
E|--------------------------5-/-7-------5--7-5--5-/-7-------5--7-5--|---5-/-7--------5--7--5--5/7------5----|

CHORUS

e-|-0-|-0—|-0-|—0—|-0-|
B-|-0—|-0—|-3-|—0—|-0-|
G-|-6—|-6—|-4-|—0—|-0-|
D-|-7—|-7—|-x-|—0—|-2-|
A-|-0—|-x—|-5-|—x—|-2-|
D-|-x—|-4-|—5-|—4-|—2-|
Same thing as the verse with the guitar, same chords as posted before.
Strum as you wish.
Here's bass:
G------------------------------------------------------------------------|

Продолжаем грести бабос на ботах в Telegram.
Только в этот раз есть вариант автоматизировать это дело, привлекая рефералов. Вы можете заработать если »

D------------------------------------------------------------------------| A-------------------------------7--5--------------------7--5-----------5-| Repeat after the D note E--5--------2---------5-/-7----------5--7-7-5---5-/-7--------5--7-7------| back to the A note BREAKDOWN Heres the Guitar Part (Thom's guitar, remember i'm not writing the strum pattern down just chord positions so strum as you wish) omit the high e string for all chords except for the Em. B-|--7---|---10---|---5---|----0--| G-|--7---|---10---|---5---|----0--| D-|--7---|---10---|---5---|----2--| A-|--9---|---12---|---5---|----2--| D-|--9---|---12---|---7---|----2--| Bm Dm Am Em Play them like this: Bm Dm Am Em "We are accidents waiting waiting to happen" Here's the main guitar (Johnny) e|---------7--------|-------------------------------------------------------7-----------------7-----|---------7---------| B|------------------|-----------------12------------------12----------------------------------------|-------------------| G|-----7-----7------|-----------10-------10-------10--------9------------------9--------------------|------7------7-----| D|------------------|-----------------------------------------------------7----------------7------9-|-------------------| A|------------------|--------------------------------------------------0---------------0------------|-------------------| E|--7-----------7---|------10-----------------10----------------------------------------------------|---0-------------0-| 4 times then 2 times You can pretty much fiddle around with this, it has many variations. Listen and you'll find out. Johnny's solo e|------7---------|--------------------------7-------------------------7---------------------------------------| B|----------------|-----------------------6----6---------------------------------------------------------------| G|----7---7-------|--------------------------------------------------9---9-------------------------------------| D|----------------|-----------------------------------------------------------------------777777-555555-----5--| A|----------------|--7-7-7-7-7-6-5----------------7-7-7--6-5-4-3-0----------7-6-5-4-3-2-0---------------5-7----| E|--7--------7----|--------------------------------------------------------------------------------------------| 3 times then I Might have missed out a few notes here and there but i just tried this today so bare with me. I'm sure your all aware of the order of verses and chorus and what not. For the bass on this last part all i can hear is him playing the root notes on the chords Thom's playing. Once again if you didn't know Thom's guitar is tuned to Dropped-D. Enjoy!

искать в аптеке
список лекарств






О сайтеАккордыХит-парадПоискУроки ФорумыИщу песню
ПрограммыСвежачок-сПодпискаСтатьи
Яндекс.Метрика