Аккорды Radiohead | We Suck Young Blood гитара табулатуры уроки тексты песен Radiohead текст lyrics песня аккорды песни ноты нота электрогитара струна  
   А Б В Г Д Е Ж З И К Л М Н О П Р С Т У Ф Х Ч Ш Ы Э Ю Я       Разные песни
1-9 A B C D E F G H I J K L M N O P Q R S T U V W Y Z      Все исполнители in english

    



группа Radiohead, Аккорды песни We Suck Young Blood

Продолжаем грести бабос на ботах в Telegram.
Только в этот раз есть вариант автоматизировать это дело, привлекая рефералов. Вы можете заработать если »

Группа: Radiohead - другие аккорды (189),   о группе (6 статей),   диски (9),   фотографии (134)
Аккорды песни: We Suck Young Blood
Просмотров: 1289
Подобрал: Ciaran McHale (ciaran@radioheadtabs.com)




    
g------
d------
a-s9-0-
e------
***********************chorus*************************¦
e-----------------------------------------------------¦-----------------------
b-3-----4--5---6---9-----7---6-------9-----7--6-------¦-------------------3---
g---3--------7-------6---------5---8---6--------5---8-¦---8---6---5---3--2----
d-----4----------------8---------7-------8--------7---¦-----9---9---3-------5-
a-----------------------------------------------------¦-----------------------
e-----------------------------------------------------¦-----------------------
e----11-----11-------4------------11------------------------------------------
b------------------7------6------------------9--------------------------------
g--11--11-10--10--6-6-6--5-5----11--11-11-10---11^(13)(11)-11-10--------------
d----------------------------7------------------------------------8-----------
a-----------------------------------------------------------------------------
e-----------------------------------------------------------------------------
e---11--11---10-------9-8-----------------------------------------------------
b----------------10-----------6-8---------------------------------------------
g-----11-------10--10-------------8-8-----------------------------------------
d-------------------------3h5-------------------------------------------------
a-----------------------------------------------------------------------------
e-----------------------------------------------------------------------------
***********************chorus*************************¦
e-----------------------------------------------------¦
b-3-----4--5---6---9-----7---6-------9-----7--6-------¦
g---3--------7-------6---------5---8---6--------5---8-¦   x2
d-----4----------------8---------7-------8--------7---¦ 
a-----------------------------------------------------¦
e-----------------------------------------------------¦
Bridge - Tempo Change
e-----  
b-6--- 
g---8-  Over and over

Продолжаем грести бабос на ботах в Telegram.
Только в этот раз есть вариант автоматизировать это дело, привлекая рефералов. Вы можете заработать если »

d----- a----- e----- Back To Original Tempo e----------------------------------------------------!--------------------!-- b-7--6--9s11--7--7-6--7-11-10--10-11-13--11-13s10--7-11-7-6--7-7-9-7-7-6--11- ! = Harmonics g---------------------------------------------------------------------------- d---------------------------------------------------------------------------- a---------------------------------------------------------------------------- e---------------------------------------------------------------------------- e-----------------------!---------------------------------------------------- b-7--11--11-13-14--11-13-11-10----------------------------------------------- ! = Harmonics g------------------------------10-------------------------------------------- d---------------------------------------------------------------------------- a---------------------------------------------------------------------------- e---------------------------------------------------------------------------- ***********************chorus*************************¦ e-----------------------------------------------------¦ b-3-----4--5---6---9-----7---6-------9-----7--6-------¦ g---3--------7-------6---------5---8---6--------5---8-¦ d-----4----------------8---------7-------8--------7---¦ a-----------------------------------------------------¦ e-----------------------------------------------------¦ ***********************chorus*******************************¦ e---------1---2---------------------------------------------¦ b-3---4------------9------6-------9-------6-------6-7-7-----¦ g---3---3---3---3------11---5----------11----5-----------8--¦ d--------------------9--------3-3---9----------3-3---------8¦ a-----------------------------------------------------------¦ e-----------------------------------------------------------¦

найти лекарство
список лекарств






О сайтеАккордыХит-парадПоискУроки ФорумыИщу песню
ПрограммыСвежачок-сПодпискаСтатьи
Яндекс.Метрика