Аккорды Radiohead | Where I End  And You Begin гитара табулатуры уроки тексты песен Radiohead текст lyrics песня аккорды песни ноты нота электрогитара струна  
   А Б В Г Д Е Ж З И К Л М Н О П Р С Т У Ф Х Ч Ш Ы Э Ю Я       Разные песни
1-9 A B C D E F G H I J K L M N O P Q R S T U V W Y Z      Все исполнители in english

    



группа Radiohead, Аккорды песни Where I End And You Begin

Продолжаем грести бабос на ботах в Telegram.
Только в этот раз есть вариант автоматизировать это дело, привлекая рефералов. Вы можете заработать если »

Группа: Radiohead - другие аккорды (189),   о группе (6 статей),   диски (9),   фотографии (134)
Аккорды песни: Where I End And You Begin
Просмотров: 2208
Подобрал: Graham Jones (cleanyoungbob@hotmail.com)




    
synth intro -  
 
e--------------------------------------------- 
b--------------------------------------------- 
g--------------------------------------------- 
d--------------------------------------------- 
a--3------------3--6--1--3------------3--6--1- 
e----3--4--1--3------------3--4--1--3--------- 
 
bass  
(even if a note is played more than once i may only write it once 
to save space) 
 
g-5--3------------------------------------- 
d-----5--3h5h6--5-3--1h3-5-5-3------------- 
a-----------------------------6-3--6--3-6-- 
e-----------------------------------------6 
 
theres another part, it might be guitar but im pretty sure its just  
the treble part played by whoever is playing the synth, and its  
basically the same notes as the synth intro but an octave or two higher 
so i shallnt bother tabbing it 
 
break 
 
bass 
g--8------------------- 
d---10-10-10-10-10-8h10 
a---------------------- 
e----------------------  x7 
 
synth  
e----------------- 
b-------9p8------- 
g---5--8-----3-5-- 
d-----------5----- 
a----------------- 
e-----------------  repeat 
 
2ndtime 
muted guitar bit 
e------------------------- 
b------------------------- 
g--8-x-x-8-x-8-8-x-x-8-x-x 
d--8-x-x-8-x-8-8-x-x-8-x-x 
a--6-x-x-6-x-6-6-x-x-6-x-x 
e-------------------------    repeat 

Продолжаем грести бабос на ботах в Telegram.
Только в этот раз есть вариант автоматизировать это дело, привлекая рефералов. Вы можете заработать если »

outro bass g--8------------------- ------8-----8-----8-----8-10-12- d---10-10-10-10-10-8h10 --8h10--8h10--8h10--8h10-------- a---------------------- -------------------------------- e---------------------- x8 -------------------------------- x4 g--8-----------8------- -------------------------------- d---10-10-10-10-10----- ------8-----8-----8-----8-10-12- a---------------------- --8-10--8-10--8-10--8-10-------- e---------------------- x4 -------------------------------- x4 break guitar e----------------------- b-8-8-8-8-8-8-8-6-8-8-8- g----------------------- bass g-8-----7- d--------- a--------- e--------- muted distorted guitar bit - alternate between these two e------------------------------------- b------------------------------------- g-12-13-x-13-x-13-x-13-x-13-13-13-13-- d------------------------------------- a-10-11-x-11-x-11-x-11-x-11-11-11-11-- e------------------------------------- e------------------------------------- b--------------16-x-16-x-16-16-16-16-- g-12-13-x-13-x------------------------ d--------------13-x-13-x-13-13-13-13-- a-10-11-x-11-x------------------------ e------------------------------------- then back into outro

найти лекарство
список лекарств






О сайтеАккордыХит-парадПоискУроки ФорумыИщу песню
ПрограммыСвежачок-сПодпискаСтатьи
Яндекс.Метрика