Табулатура Radiohead | Go To Sleep гитара табулатуры уроки тексты песен Radiohead текст lyrics песня аккорды песни ноты нота электрогитара струна  
   А Б В Г Д Е Ж З И К Л М Н О П Р С Т У Ф Х Ч Ш Ы Э Ю Я       Разные песни
1-9 A B C D E F G H I J K L M N O P Q R S T U V W Y Z      Все исполнители in english

    



группа Radiohead, Табулатура песни Go To Sleep

Продолжаем грести бабос на ботах в Telegram.
Только в этот раз есть вариант автоматизировать это дело, привлекая рефералов. Вы можете заработать если »

Группа: Radiohead - другие аккорды (189),   о группе (6 статей),   диски (9),   фотографии (134)
Табулатура песни: Go To Sleep
Просмотров: 2460
Подобрал: Tim LaBatte (timothy.labatte@verizon.net)




    
This song is in 5/4 time (1,2,3,4,5.1,2,3,4,5. etc.)
INTRO SECTION
intro/verse (Thom?)
part A (0:00-0:44)
E----3-3(1-0)------------------------
B----3-3-3-3------6----6----8----8---
G----0-0-0-0------0----0----0----0---
D----0-0-0-0----0----0----0----0-----
A----x-x-x-x-------------------------
E--1/3-3-3-3---6----5----8----7------
( )-means every other measure. you can omit if you want and just strum the G chord.
verse
part B (when bass and drums join). (0:44-1:23)
E----3-3(1-0)------------------------3-3(1-0)--------------------------
B----3-3-3-3------6----6----8----8---3-3-3-3------6------6-----8------8
G----0-0-0-0------0----0----0----0---0-0-0-0-----0------0-----0------0-
D----0-0-0-0----0----0----0----0-----0-0-0-0---------------------------
A----x-x-x-x-------------------------x-x-x-x---6------------8----------
E--1/3-3-3-3---6----5----8----7------3-3-3-3----------6------------8---
Itswitches from part A to part B every measure back and forth when the bass and drums kick in.
------------------------------------------------------------------------
MIDDLE SECTION
Chorus
(1:24-1:30)
e-x-x-x-x-x-x--x-x-x-x-x-x--x-x-x-x-x-x--x-x-x-x-x
b-6-6-6-6-6-6--8-8-8-8-8-8--6-6-6-6-6-6--5-5-5-5-5
g-0-0-0-0-0-0--0-0-0-0-0-0--0-0-0-0-0-0--0-0-0-0-0
d-0-0-0-0-0-0--0-0-0-0-0-0--0-0-0-0-0-0--0-0-0-0-0
a-x-x-x-x-x-x--x-x-x-x-x-x--x-x-x-x-x-x--x-x-x-x-x
e-6-6-6-6-6-6--8-8-8-8-8-8--6-6-6-6-6-6--5-5-5-5-5
Chorus is just Bb to C major to A major. But when you play it this way it gives it moreof a full sound. I think they play it this way because Thom usually uses thesetype of chord structures. Listen for correct timing for strumming. 
------------------------------------------------------------------------
OUTRO SECTION
(Thom’s acoustic part during bridge)
e-x-x-x-x-x--x-x-x-x-x-x--x-x-x-x-x-x
b-3-3-3-3-3--6-6-6-6-6-6--8-8-8-8-8-8
g-0-0-0-0-0--0-0-0-0-0-0--0-0-0-0-0-0
d-0-0-0-0-0--0-0-0-0-0-0--0-0-0-0-0-0
A-x-x-x-x-x--x-x-x-x-x-x--x-x-x-x-x-x
e-3-3-3-3-3--6-6-6-6-6-6--8-8-8-8-8-8
Loop this part^ over and over till chorus.
bridge/post-chorus (Johnny?)
(1:30-1:42)
e---------------------------------------------------       ----
b---------------------------------------------------	     ----
g---------------------------------------------------	     ----

Продолжаем грести бабос на ботах в Telegram.
Только в этот раз есть вариант автоматизировать это дело, привлекая рефералов. Вы можете заработать если »

d-------7-5---------7-5---------7-5----------------- -3-2 a-3-5---------3-5---------3-5---------(8-7)-3-5-3-3- -or -3-3 e-3-3---6-6---3-3---6-6---3-3---6-6---(8-8)-3-3-3-3- -or -x-x Listenfor correct timing. Then itgoes to this. (cont.^) (1:42-2:19) e----------------- b----------------- g----------------- d-------7-5---3-2- a-3-5---------3-3- e-3-3---6-6------- just keep on looping this^. Below is Johnny’s little lead part towards the end. E---------10--10----------- B---8-----13~-13~----6---8- G--10~---------------8~-10~ D-------------------------- A-------------------------- E-------------------------- ~ - means bend ------------------------------------------------------------------------ SongStructure: intro/verse part A versepart B Chorus post-chorus bridge chorus bridge/outro/solo bit End

найти лекарство
список лекарств






О сайтеАккордыХит-парадПоискУроки ФорумыИщу песню
ПрограммыСвежачок-сПодпискаСтатьи
Яндекс.Метрика