Табулатура Metallica | No Remorse гитара табулатуры уроки тексты песен Metallica текст lyrics песня аккорды песни ноты нота электрогитара струна  
   А Б В Г Д Е Ж З И К Л М Н О П Р С Т У Ф Х Ч Ш Ы Э Ю Я       Разные песни
1-9 A B C D E F G H I J K L M N O P Q R S T U V W Y Z      Все исполнители in english

    



группа Metallica, Табулатура песни No Remorse

Продолжаем грести бабос на ботах в Telegram.
Только в этот раз есть вариант автоматизировать это дело, привлекая рефералов. Вы можете заработать если »

Группа: Metallica - другие аккорды (225),   о группе (32 статей),   диски (11),   фотографии (49)
Табулатура песни: No Remorse
Просмотров: 1768
Прислал: xAL (xal@akkords.ru)




    
Tabs by Brandon Romundstad

intro solo
E||--14----14----14----14----14----14----|--14----14----14----14--14----14--|
B||--17b---17b---17b---17b---17b---17b---|--17b---17b---17b---17b-17b-------|
G||--------------------------------------|----------------------------------|
D||--------------------------------------|----------------------------------|
A||--------------------------------------|----------------------------------|
E||--------------------------------------|----------------------------------|

--17h14---14-17h14h17h14----14-17h14-17h14----14-|
--------x----------------17----------------17----|
-------------------------------------------------|
-------------------------------------------------|
-------------------------------------------------|
-------------------------------------------------|

--17h14h17h14----14-17h14-17h14----14-17h14h-17-|--19b-----19b-----17--14--|
--------------17----------------17--------------|--------------------------|
------------------------------------------------|--------------------------|
------------------------------------------------|--------------------------|
------------------------------------------------|--------------------------|
------------------------------------------------|--------------------------|

--17h14----14-17h14---------------------------|
--------17----------17-14-17h-14--------------|
----------------------------------16--14------|
------------------------------------------16--|
----------------------------------------------|
----------------------------------------------|

------------14--------------17-14-17-14-|--------------------------------|
------------14--17h14----14-17-14-17-14-|--17--14--17h14-----------------|
--14--16r-------------16----------------|----------------16--14/---2--4b-|
----------------------------------------|--------------------------------|
----------------------------------------|--------------------------------|
----------------------------------------|--------------------------------|

-------------------------------|----------------------------|
----2--5h2---2-5h2-5h2-5h2-2-2-|--5h2-----------------------|
-----------4-------------------|------4--2-----2--4--4r-4-2-|
-------------------------------|------------4---------------|
-------------------------------|----------------------------|
-------------------------------|----------------------------|

---------------------------|-------------------------|---------------------|
---------------------------|-------------------------|---------------------|
-----2--4h2----------------|-------------------------|------------4--------|
--4---------4--2-----------|--------------2-------2--|--4----4-------------|
------------------4--2-----|--------2--4-------4-----|---------------------|
------------------------5--|--2--5-------------------|---------------------|

-----------5--------|--5h2---2-5h2----------------|-----------------------14--|
--5-----------------|------2-------5--2-----------|-------------------14------|
--------------------|--------------------4--2-----|--2--4r---4h2--------------|
--------------------|--------------------------4--|--------------4------------|
--------------------|-----------------------------|---------------------------|
--------------------|-----------------------------|---------------------------|

--17h14----14-17h14-19h14-17h14-14-14-17h14-19h14-|
--------17----------------------------------------|
--------------------------------------------------|
--------------------------------------------------|
--------------------------------------------------|
--------------------------------------------------|

--17h14-14-14-17h14-19h14-17h14----14-17h14-14-14-|
--------------------------------17----------------|
--------------------------------------------------|
--------------------------------------------------|
--------------------------------------------------|
--------------------------------------------------|

--17h14-----------------------------|----------------------------|
--------17--14----------------------|----------------------------|
----------------16--14--------------|------16b---16b---16r16-14--|
----------------------------14--16b-|----------------------------|
------------------------16----------|----------------------------|
------------------------------------|----------------------------|

--------------------------|--17b---17b---17b---17--14--|
--17b-------17----17--14--|----------------------------|
--------------------------|----------------------------|
--------------------------|----------------------------|
--------------------------|----------------------------|
--------------------------|----------------------------|

--17h-14------14----------------------------------|
----------17------17--14--17h-14------14----------|
----------------------------------16------16--14--|
--------------------------------------------------|
--------------------------------------------------|
--------------------------------------------------|

----------------------------------------------|----------------------|

Продолжаем грести бабос на ботах в Telegram.
Только в этот раз есть вариант автоматизировать это дело, привлекая рефералов. Вы можете заработать если »

----------------------------------------------|----------------------| --16h-14--------------------------------------|----------------------| ----------16--14------14--16h-14--------------|----------------------| ------------------16--------------16--14------|----------------------| ------------------------------------------17--|--14--14/-------------| solo ------------------------|----------------------------|--12----------------------------------| --15--------15------15--|------------15----15--------|--12----14----12----------------14----| --14b-------14b-----14b-|------14b---14b---14b-------|--------14----12----------12----14----| ------------------------|----------------------------|--------------------14----------------| ------------------------|----------------------------|--------------------------------------| ------------------------|----------------------------|--------------------------------------| ------------------------------|--15b-------15b-----15b-| --14b---14--------------------|------------------------| --14b---14----------12--------|------------------------| --------------14--------------|------------------------| ------------------------------|------------------------| ------------------------------|------------------------| ----15b---15b-15b---15--12--|--15h-12------------------------------------------| ----------------------------|----------15--12------12--15h-12------------------| ----------------------------|------------------14--------------14--12------12--| ----------------------------|------------------------------------------14------| ----------------------------|--------------------------------------------------| ----------------------------|--------------------------------------------------| ------------------------------------12--| --------------------------------15------| --14h-12--------------------------------| ----------14--12------------------------| ------------------14--12--10------------| ----------------------------------------| --15h-12------------------15h-12------------------| ----------15--12------------------15--12----------| ------------------14--12------------------14--12--| --------------------------------------------------| --------------------------------------------------| --------------------------------------------------| --15h-12------------------15h-12------------------| ----------15--12------------------15--12------12--| ------------------14--12------------------14------| --------------------------------------------------| --------------------------------------------------| --------------------------------------------------| --15h-12------------------------------------------| ----------15--12------12--15h-12------------------| ------------------14--------------14--12------12--| ------------------------------------------14------| --------------------------------------------------| --------------------------------------------------| ------------------------------| --------------------------12--| --14--14r----12-14----15------| ------------------------------| ------------------------------| ------------------------------| --15h-12------14h-12------15h-12------17h-12------| ----------12----------12----------12----------12--| --------------------------------------------------| --------------------------------------------------| --------------------------------------------------| --------------------------------------------------| --15h-12------14h-12------15h-12------17h-12------| ----------12----------12----------12----------12--| --------------------------------------------------| --------------------------------------------------| --------------------------------------------------| --------------------------------------------------| --14h-12--14--15h-14--15--17h-15--17--19h-17--18--| --------------------------------------------------| --------------------------------------------------| --------------------------------------------------| --------------------------------------------------| --------------------------------------------------| --20h-18--18--22h-19--22--22b---22b---|--22r---19/-----------|| --------------------------------------|----------------------|| --------------------------------------|----------------------|| --------------------------------------|----------------------|| --------------------------------------|----------------------|| --------------------------------------|----------------------||

искать в аптеке
список лекарств






О сайтеАккордыХит-парадПоискУроки ФорумыИщу песню
ПрограммыСвежачок-сПодпискаСтатьи
Яндекс.Метрика