Табулатура Metallica | Through The Never гитара табулатуры уроки тексты песен Metallica текст lyrics песня аккорды песни ноты нота электрогитара струна  
   А Б В Г Д Е Ж З И К Л М Н О П Р С Т У Ф Х Ч Ш Ы Э Ю Я       Разные песни
1-9 A B C D E F G H I J K L M N O P Q R S T U V W Y Z      Все исполнители in english

    



группа Metallica, Табулатура песни Through The Never

Группа: Metallica - другие аккорды (225),   о группе (32 статей),   диски (11),   фотографии (49)
Табулатура песни: Through The Never
Просмотров: 1792
Прислал: xAL (xal@akkords.ru)




    
Through The Never (Solo)
Tabs by McCready

I really hope with this tab correct the inperfection on the first tab ...
 
Fill
E||----------------------|----------------------|
B||--7~------------------|----------------------|
G||-------6~---5~---4~---|----------------------|
D||----------------------|--4~------------------|
A||----------------------|-------4~---3~---2~---|
E||----------------------|----------------------|

Solo
--14------------14--------------14--------|------14------------14--17--14h17h14----|--17h14-----14------10------10--12--|
------17h15h17------17h15-17h15-----17h15h|--17------17h15h17-------------------17-|--------17------17------12----------|
------------------------------------------|----------------------------------------|------------------------------------|
------------------------------------------|----------------------------------------|------------------------------------|
------------------------------------------|----------------------------------------|------------------------------------|
------------------------------------------|----------------------------------------|------------------------------------|

--12r---10--------------|-----------------------|-----------------------|
------------12~---------|-----------------------|-----------------------|
------------------------|-----7--9--9r-----9r---|--9r---7------------7--|
------------------------|--9--------------------|----------9~-----9-----|
------------------------|-----------------------|-----------------------|
------------------------|-----------------------|-----------------------|

----------------------------|---------------------|-------------------------|
------------------------10b-|---------------------|-----------7-------------|
--9--7--9r-9h7----7--9------|----------9/---------|-----------7-------------|
---------------9------------|---------------7--9/-|--9--7--9-------9--7-----|
----------------------------|---------------------|----------------------9--|
----------------------------|---------------------|-------------------------|

-------------------------|---------------------------|-----------------------|
-----------7-------------|---------------------------|-----------------------|
-----------7-------------|--------9-----7--9---------|-----------------------|
--7--9--7-------9--7-----|--7--9-----9--------9h7----|--7--------------------|
----------------------9--|------------------------9--|-----9--7--5~-------7--|
-------------------------|---------------------------|-----------------------|

------------------------|----------------------|------------------|
------------------------|----------------------|------------------|
Узнай ВСЕ о своем друге в ВК или FB
------------------------|----------------------|------------------| ------------------------|----------------------|------------------| --8--7--5--7r---5--7r---|--5--7r---5--7r-------|------------------| ------------------------|----------------------|------------------| ---------------------|--12h15h12----12h15h12----12h15h12----12h15h12----| ---------------------|-----------15----------15----------15----------15-| ---------------------|--------------------------------------------------| ---------------------|--------------------------------------------------| --5------------------|--------------------------------------------------| -----7~---7~---------|--------------------------------------------------| --12h15h12----12h15h12----12h15h12----12h15h12----| -----------15----------15----------15----------15-| --------------------------------------------------| --------------------------------------------------| --------------------------------------------------| --------------------------------------------------| --12h15h12--16~-------15h12-----|--12h-15h-12--20b----------| ----------------------------15--|---------------------------| --------------------------------|---------------------------| --------------------------------|----------------------5/---| --------------------------------|---------------------------| --------------------------------|---------------------------| -----2---------------|-----2-------------------|-----2--------------------| -----2------7/-------|-----2-------------------|-----2--5-----------------| --4b-----------------|--4b----4h2----2---------|--4b-------4--2-----2--4--| ---------------------|------------4-----4------|-----------------4--------| ---------------------|-------------------------|--------------------------| ---------------------|-------------------------|--------------------------| its a slide down ----------------------|----9---------11------|----12--------------------|| ----------------------|----12b-------14b-----|----15b-------------------|| --4r-------2----------|----------------------|--------------11-\\-------|| -------------4-----4--|----------------------|--------------11--\\\\----|| ----------------------|----------------------|---------------------\\\\-|| ----------------------|----------------------|------------------------\\||

искать в аптеке
список лекарств

Аквапанель

Поставка строительных материалов. Информация для снабженцев и риелторов.

stroyberg.ru

Глубокий пилинг лица

Продажа продуктов Глубокой заморозки

konturkrasoty.ru








О сайтеАккордыХит-парадПоискУроки ФорумыИщу песню
ПрограммыСвежачок-сПодпискаСтатьи
Яндекс.Метрика