Табулатура Wilco | I Got You (at The End Of The Century) гитара табулатуры уроки тексты песен Wilco текст lyrics песня аккорды песни ноты нота электрогитара струна  
   А Б В Г Д Е Ж З И К Л М Н О П Р С Т У Ф Х Ч Ш Ы Э Ю Я       Разные песни
1-9 A B C D E F G H I J K L M N O P Q R S T U V W Y Z      Все исполнители

    



группа Wilco, Табулатура песни I Got You (at The End Of The Century)

Группа: Wilco - другие аккорды (89),   диски (6),   фотографии (7)
Табулатура песни: I Got You (at The End Of The Century)
Просмотров: 1047
Подобрал: Mike Brann (mercury@infinet.com)




    
(Intro Riff):
e|---3--3---5~~~~~~~~~----5--5---5~~~~~~~~---
B|---3--3---5~~~~~~~~~----7--7---5~~~~~~~~---
G|---4--4---6~~~~~~~~~----7--7---6~~~~~~~~---
D|---5--5---7~~~~~~~~~----7--7---7~~~~~~~~---
A|---5--5---7~~~~~~~~~----5--5---7~~~~~~~~---
E|---3--3---5~~~~~~~~~-5--5--5---5~~~~~~~~---
               (Phone Dialing...)
Play Intro Riff 4x
at third Intro Riff, another guitar plays this:
e|---3--3---5-----------------5--5---5------------
B|---3--3---5-------5~~~------7--7---5--5-----5~~~
G|---4--4---6---4h6-----------------------4h6-----
D|-----------------------------------------------
A|-----------------------------------------------
E|-----------------------------------------------
e|---5--5---5------------------5--5---5-------------
B|---8--8---5-------5~~~-------7--7---5---5-----5~~~
G|--------------4h6-------------------------4h6-----
D|--------------------------------------------------
A|--------------------------------------------------
E|--------------------------------------------------
(Verse 1):
A(v)                              D(v)
I got you and it's all I need
A(v)                              D(v)
I got you and it's all I need
F#m
I got you and it's all I need
F           F/E  F  F/E  F
I got you
(Chorus 1):
A(v)
I got you and I still believe
E(vii)
That you're all that I'll ever need
     A(v)          D(v)
It's you
A(v)         D(v)
All
(Verse 2):
All the way back in the seventies
You were my little TV queen
Your Tarzan and your friend Janine
I got you
(Chorus 1)
(Solo):
   A                           F#m
e|-5-------5------5~-5~-5~-5~--2--2------------------------
B|-7b8b7---5h7p5--5~-5~-5~-5~--2--2------------------------
G|----------------------------------4p2---2----------------
D|--------------------------------------4----4p2---2-------
A|-----------------------------------------------4---4-3-2-
E|---------------------------------------------------------
   F                                               A              C#m
e|-------------------------------------------------------------------
B|-------------------------------------------------------------------
G|-----------------------------------------------------6-6---6-7-8-9-
D|-3--2p0-3--2p0-3--2p0-3--2p0-3--2p0-3--2p0-3--2--0/7-----7---------
A|-------------------------------------------------------------------

Продолжаем грести бабос на ботах в Telegram.
Только в этот раз есть вариант автоматизировать это дело, привлекая рефералов. Вы можете заработать если »

E|------------------------------------------------------------------- Bm E A C#m Bm e|--------------7------------5-5---5-7-8-9~----9-8-7~- B|-----------/9---9-7--------------------------------- G|-9-8-7~~------------9----6-----6-----------9-------- D|---------------------------------------------------- A|---------------------------------------------------- E|---------------------------------------------------- E e|-----7-------------12----------------- B|-7b9---9b7---12b14----14b12-10--10~~~~ G|-------------------------------------- D|-------------------------------------- A|-------------------------------------- E|-------------------------------------- (Verse 3): It's the end of the century I can't think of anything Except you (Chorus 2): A(v) It's the end of the century E And I can't think of anything A(v) D(v) But you A(v) D(v) Oh A(v) D(v) All A(v) D(v) I A(v) D(v) A(v) D(v) Neeeeeeeeeeeeeeed (Outro #1): A(v) D(v) A(v) D(v) A(v) G(iii) A(v) let ring for a while, then play: (Outro Riff): e|-5-----------5- B|-5--7--5--7--5- G|----7--6--7---- D|--------------- A|--------------- E|--------------- play Outro Riff till song ends while another guitar plays intro riff (Outro): I got you I got you, babe I got you I got you I got you I got you








О сайтеАккордыХит-парадПоискУроки ФорумыИщу песню
ПрограммыСвежачок-сПодпискаСтатьи
Яндекс.Метрика