Табулатура Аквариум | Гоpод Золотой (3) гитара табулатуры уроки тексты песен Аквариум текст lyrics песня аккорды песни ноты нота электрогитара струна  
   А Б В Г Д Е Ж З И К Л М Н О П Р С Т У Ф Х Ч Ш Ы Э Ю Я       Разные песни
1-9 A B C D E F G H I J K L M N O P Q R S T U V W Y Z      Все исполнители in english

    



группа Аквариум, Табулатура песни Гоpод Золотой (3)

Продолжаем грести бабос на ботах в Telegram.
Только в этот раз есть вариант автоматизировать это дело, привлекая рефералов. Вы можете заработать если »

Группа: Аквариум - другие аккорды (421),   о группе (24 статей),   диски (42),   фотографии (43)
Табулатура песни: Гоpод Золотой (3)
Просмотров: 10571
Подобрал: Comfortaly numb (meddle00@yandex.ru)




    
Этот вариант мне дали в музыкальной школе. Играется не сложно, звучит великолепно.
e||-----|------------------------------------|--0---------------------------0-----|
B||-----|--1---0---------------0---1---------|--1---3---1---0---1---1---3-------2-|
G||-----|--2-------2---1---2-----------2-----|--2---------------2-----------------|
D||---2-|--2-------------------------------2-|----------2-------------------------|
A||-----|--0---------------0-----------------|--0---------------0-----------------|
E||-----|----------0-------------------------|------------------------------------|
                                                                 /------------------ До сюда идет вступление,
e||--1---0-----------------------1-|--0-----------------------------|              далее с начала, уже с вокалом
B||--3-------3---1---0---1---3-----|--0---3---1---3---0-------------|
G||--2-----------------------------|--1-----------------------------|
D||--0-----------------------------|------------------------------2-|
A||--------------------------2-----|--------------------------------|
E||--------------------------------|--0---------------0---4---0-----|
e||------------------------------------|--0---------------------------0-----|
B||--1---0---------------0---1---------|--1---3---1---0---1---1---3-------2-|
G||--2-------2---1---2-----------2-----|--2---------------2-----------------|
D||--2-------------------------------2-|----------2-------------------------|
A||--0---------------0-----------------|--0---------------0-----------------|
E||----------0-------------------------|------------------------------------|
e||--1---0-----------------------1-|--0---------------------------3-|

Продолжаем грести бабос на ботах в Telegram.
Только в этот раз есть вариант автоматизировать это дело, привлекая рефералов. Вы можете заработать если »

B||--3-------3---1---0---1---3-----|--0---3---1---0-----------------| G||--2-----------------------------|--1---------------2-------------| D||--0-----------------------------|--------------------------------| A||--------------------------2-----|------------------0---3---0-----| E||--------------------------------|--0-----------------------------| e||--3-----------3---3---1---0---1---5---1-|--1-----------1---1---0-------0---3-| B||--2-------2-------3---------------------|--0-------0---------------4---------| G||--0---2-----------2---------------------|--0---0-----------------------------| D||------------------0---------------------|------------------------------------| A||--0-------------------------------------|------------------3-----------------| E||----------------------------------------|--3---------------------------------| e||-------------------10---8---7-----------------------|-------------------10---8---7--------------------|| B||--------------------------------10---10-------9-----|--------------------------------10---10---9---10-|| G||------7---9---10--------------------------7-------7-|------7---9---10--------------------------7---7--|| D||--0---------------------------------------9-------9-|--0---------------------------------------9---10-|| A||----------------------------------------------------|----------------------------------------------0--|| E||-------------------------------------0--------------|-------------------------------------0-----------||

искать в аптеке
список лекарств

Интернет магазин фабрики

Мебельная фабрика. Мебельная фабрика (гСходня

lerom-mebel.su








О сайтеАккордыХит-парадПоискУроки ФорумыИщу песню
ПрограммыСвежачок-сПодпискаСтатьи
Яндекс.Метрика