Табулатура Guns N Roses | Sympathy For The Devil гитара табулатуры уроки тексты песен Guns N Roses текст lyrics песня аккорды песни ноты нота электрогитара струна  
   А Б В Г Д Е Ж З И К Л М Н О П Р С Т У Ф Х Ч Ш Ы Э Ю Я       Разные песни
1-9 A B C D E F G H I J K L M N O P Q R S T U V W Y Z      Все исполнители in english

    



группа Guns N Roses, Табулатура песни Sympathy For The Devil

Продолжаем грести бабос на ботах в Telegram.
Только в этот раз есть вариант автоматизировать это дело, привлекая рефералов. Вы можете заработать если »

Группа: Guns N Roses - другие аккорды (62),   диски (9),   фотографии (8)
Табулатура песни: Sympathy For The Devil
Просмотров: 936
Подобрал: Кс-82




    
 Guns N Roses: Sympathy For The Devil 
Drums, Bongas, Axl\'s Ooooah\'s etc....
         Please allow me         to intro- -duce myself                         
||-------------------------|-------------------------------------|--------------
||-------------------------|-------------------------------------|--------------
||*---------9-----9-----9--|----------------------7-----7-----7--|--------------
||*--9---9--9--9--9--9--9--|------9--9------7--7--7--7--7--7--7--|--------------
||---7---7-----7-----7-----|------7--7------5--5-----5-----5-----|--------------
||-------------------------|-------------------------------------|--------------
                                                                                
I\'m a man       with wealth                 and taste                           
------------------------------------------------------------------------||------
------------------------------------------------------------------------||------
--------------------------------------------------------9-----9-----9--*||------
-7--7---------------7--7-----7--7------------7-9--9--9--9--9--9--9--9--*||------
-5--5--7--7--7------5--5-----5--5-----x--x---5/7--7--7-----7-----7------||------
-------5--5--5----------------------------------------------------------||------
                                                                                
oooah       Pleased to meet you        hope you guessed my name                 
----------------------------------------------------------------|---------------
----------------------------------------------------------------|---------------
----------------------------------------------------------------|---------------

Продолжаем грести бабос на ботах в Telegram.
Только в этот раз есть вариант автоматизировать это дело, привлекая рефералов. Вы можете заработать если »

---------4---------------------9--9-4---------------------------|--7-9--9--9---- -/-------2---------------------7--7/2---------------------------|--5/7--7--7---- ----------------------------------------------------------------|--------------- (long slide) But what\'s puzzling you is the -----------------------------------------|-------------------------------------- -----------------------------------------|-------------------------------------- 9-----9-----9-------------9-----9-----9--|-------------------------------------- 9--9--9--9--9--7-9--9--9--9--9--9--9--9--|------------4--------9--9-4----------- ---7-----7-----5/7--7--7-----7-----7-----|------------2--------7--7/2----------- -----------------------------------------|-------------------------------------- nature of my game. -----------------------------------------------|-------------------------------- -----------------------------------------------|-------------------------------- ---------------------------9-----9-------------|-------------------------------- ----------------7-9--9--9--9--9--9--9-----9-4--|-------------------------------- ----------------5/7--7--7-----7-----7--x--7\\2--|-------------------------------- -----------------------------------------------|--------------------------------

найти лекарство
список лекарств






О сайтеАккордыХит-парадПоискУроки ФорумыИщу песню
ПрограммыСвежачок-сПодпискаСтатьи
Яндекс.Метрика