Табулатура Rival Schools | My Echo гитара табулатуры уроки тексты песен Rival Schools текст lyrics песня аккорды песни ноты нота электрогитара струна  
   А Б В Г Д Е Ж З И К Л М Н О П Р С Т У Ф Х Ч Ш Ы Э Ю Я       Разные песни
1-9 A B C D E F G H I J K L M N O P Q R S T U V W Y Z      Все исполнители

    



группа Rival Schools, Табулатура песни My Echo

Группа: Rival Schools - другие аккорды (5)
Табулатура песни: My Echo
Просмотров: 1027
Прислал: Кс-82




    
Intro/Verse
E|---------------0-0-0-0-----------0-0-0-0-|
B|----.----------0-0-0-0-----------0-0-0-0-|
G|-5-5--4-4--3-3-3-3-3-3--4-4--5-5-5-5-5-5-|
D|-5-5--4-4--3-3-3-3-3-3--4-4--5-5-5-5-5-5-|
A|-3-3--2-2--1-1-1-1-1-1--2-2--3-3-3-3-3-3-|
e|-----------------------------------------|

Chorus
E|---------------------------0-0-0--|
B|---------------------------0-0-0--|
G|-7-7-7-7-7--5-5-5-5-5------0-0-0--|
D|-7-7-7-7-7--5-5-5-5-5--5-5-5-5-5--|
A|-5-5-5-5-5--3-3-3-3-3--5-5-5-5-5--|

Продолжаем грести бабос на ботах в Telegram.
Только в этот раз есть вариант автоматизировать это дело, привлекая рефералов. Вы можете заработать если »

e|-----------------------3-3-3-3-3--| Guitar Solo (Play first part Twice) E|--------------------------------| e|--------------| B|1515-151515-14p13-131313-14-13~-| B|--------------| G|--------------------------------| G|-14-13/12~----| D|--------------------------------| D|--------------| A|--------------------------------| A|--------------| e|--------------------------------| e|--------------|








О сайтеАккордыХит-парадПоискУроки ФорумыИщу песню
ПрограммыСвежачок-сПодпискаСтатьи
Яндекс.Метрика