Аккорды Wilco | Too Far Apart гитара табулатуры уроки тексты песен Wilco текст lyrics песня аккорды песни ноты нота электрогитара струна  
   А Б В Г Д Е Ж З И К Л М Н О П Р С Т У Ф Х Ч Ш Ы Э Ю Я       Разные песни
1-9 A B C D E F G H I J K L M N O P Q R S T U V W Y Z      Все исполнители

    



группа Wilco, Аккорды песни Too Far Apart

Группа: Wilco - другие аккорды (89),   диски (6),   фотографии (7)
Аккорды песни: Too Far Apart
Просмотров: 1215
Подобрал: Philippe Treuil (ptreuil@hotmail.com)




    
MAIN RIFF :
  E                           C#m               B
-------------------------------------------------------
-------------------------------------------------------
--------------------------4-sl-6---6------------4------
------------------2-h-4---4-sl-6---6---6-sl-4---4---0--
--2---2---2-h-4-----------2-sl-4-------4-sl-2---2---0--
--0---0------------------------------------------------

 F#m                  A
-------------------------------------------------------
-------------------------------------------------------
----------------------2---2-------2---0----------------
--4---4-------4---0---2---2-------2---0----------------
--4---4-------4---0---0---0---0------------------------
--2---2---2--------------------------------------------

E                    F#m   A               E

Продолжаем грести бабос на ботах в Telegram.
Только в этот раз есть вариант автоматизировать это дело, привлекая рефералов. Вы можете заработать если »

Yo came to meet me out on the line RIFF E F#m A E You couldn't believe I was feeling fine RIFF F#M E When I really needed you you were gone A F#m So long E F#M A We were too far apart E F# A Right from the start E F#m A F#m An'I couldn't be any closer to you now RIFF Is it really punk rock, like the party line? Do I have to think about that? Can I give you some time? 'Cause when I really needed you, you were gone So long We were too far apart Right from the start I couldn't be any closer to you now








О сайтеАккордыХит-парадПоискУроки ФорумыИщу песню
ПрограммыСвежачок-сПодпискаСтатьи
Яндекс.Метрика