Табулатура Wilco | Dash 7 гитара табулатуры уроки тексты песен Wilco текст lyrics песня аккорды песни ноты нота электрогитара струна  
   А Б В Г Д Е Ж З И К Л М Н О П Р С Т У Ф Х Ч Ш Ы Э Ю Я       Разные песни
1-9 A B C D E F G H I J K L M N O P Q R S T U V W Y Z      Все исполнители

    



группа Wilco, Табулатура песни Dash 7

Группа: Wilco - другие аккорды (89),   диски (6),   фотографии (7)
Табулатура песни: Dash 7
Просмотров: 1204
Подобрал: Dave Shapiro (dshapir@argo.ecte.uswc.uswest.com)




    

Tuning, low to high: DGDGAD

-------------------------------------------------------------
-------------------------------------------------------------
------0--------------0--------------0------------------------
----------4---4----------4---4----------4---4------4---0---0-
----2-----------0--------------2--------------0----0---0-----
-0--0---0---0---2--2---2---2---0--0---0---0---2--2---2---2---
-------------------------------------------------------------|
-------------------------------------------------------------|
------0--------------0--------------0------------------------|
----------4---4----------4---4----------4---4------4---0---0-|
-2--------------0--------------2--------------0----0---0-----|
-0--0---0---0---2--2---2---2---0--0---0---0---2--2---2---2---|

 Dash                     seven          in the air
-----------------------------------------------------------------
-----------------------------------------------------------------
-------0--------------0--------------0-----------------0---------
-----------4---4----------4---4----------4------4----------4---4-
-----2-----------0--------------2-----------------0--------------
-0---0---0---0---2--2---2---2---0--0---0----0-----2--2---2---2---

 Dropped to the sun                  a-lone                    Jets
------------------------------------------------------------------------|
------------------------------------------------------------------------|
------------0----------------0--------------0-----------------0---------|
------------------4---4----------4---4----------4------4----------4---4-|
---------2--------------0--------------2-----------------0--------------|
-0-------0------0---0---2--2---2---2---0--0---0----0-----2--2---2---2---|

 hum
---------------------0-----------------------------0--------
------0---0----------0--------------0--------------0--------
------9---9---0-------------0-------9---9---0--------11---0-
----------------0--0----0---------------------0-------0---0-
----------------0-------------/7--7-------7---0--0------0---
-0--0---0---0-------------0---------------------------------
-------------------------0------------------------------------|
-------0-----------------0------------------------------------|
-------9---9---0-9/11------11---------------------------------|
-----------------0----------0---0------10-------------9-------|
-/7--7-----------0-----0------0---8--8----8---8----------7---|
-------------0--------------------0--0------x---0---0-------0-|

-------------------------------------------------------------
-------------------------------------------------------------
------0--------------0--------------0------------------------
----------4---4----------4---4----------4---4------4---0---0-
-2--------2---0----------0---0-2--------------0----0---------
-0--0-------0---2--2---2---2---0--0---0---0---2--2---2---2---

  And I wish that                    I was   still there 
--------------------------------------------------------------------
--------------------------------------------------------------------
--------0---------------0--------------0------------------0---------
-------------4---4----------4---4----------4-------4----------4---4-
------2------------0--------------2------------------0--------------
-0----0----0---0---2--2---2---2---0--0---0----0------2--2---2---2---

 Props, not a jet                a-lone          Where the sun     doesn't
--------------------------------------------------------------------------
--------------------------------------------------------------------------
------------0--------------0--------------0---------------------0---------
----------------4---4----------4---4----------4---------4-----------4-----
--------2-------------0--------------2---------------------0--------------
-0------0-----0---0---2--2-------2---0--0---0----0---------2--2---2-------

 come  down
-----|---------------------0--------------------------------0------0------
-----|---------------------0----------------------0------------0------0---
-----|------9---9---0-------------0-------9---9---0-9/11------------------
---4-|----------------0--0----0---------------------0------------0------0-
-----|----------------0-------------/7--7-------7---0-----0---------------
-2---|-0--0---0---0-------------0-----------------------------------------

       'Cause   I've          found     the way those engines sound
-0------------|----------------------------------------------------
----0---0-----|------0--0---0--0-----0--0--------------------------
--------------|------4--4---4--4------------------------------0----
------0-------|----------------0---------------------------0-------
------0-------|-0--0------0----------------------------------------
--------------|----------------4---4--------4---------2------------

 will make ya        kiss the ground        when
-------------------------------------------------|
-------------------------------------------------|
-----------0---------0--0---0-------0---0---0----|
-0-------------------4--5---5--------------------|
---------------5---5------5----------------------|
------2-----------------------2---2-------2------|

 you touch down
------------------------------------------------------------------|
------------------------------------------------------------------|
-----------0--------------0--------------0------------------------|
---------------4---4----------4---4----------4---4------4---0---0-|
-------2----------------------------2--------------0--0-----0---0-|
-0-----0-----0---0---2--2---2---2---0--0---0---0---2--2---2---2---|

---------------------------------------------------------------------
---------------------------------------------------------------------
---------------------------------------------------------------------

Продолжаем грести бабос на ботах в Telegram.
Только в этот раз есть вариант автоматизировать это дело, привлекая рефералов. Вы можете заработать если »

--------------------------------------------------------------------- ---11---9---7---0------------4---0---11---9---7---0------------4---0- -0----0-------0---2---2--0^2---2---0----0-------0---2---2--0^2---2--- -----------------------------------| -----------------------------------| -----------------------------------| -----------------------------------| ---11---9---7---0------------4---0-| -0----0-------0---2---2--0^2---x---| -------------------------------------------------------------| -------------------------------------------------------------| ------0--------------0--------------0------------------------| ------4---4--------------4---4----------4---4------4---0---0-| -2------------0-0--------------2--------------0----0---------| -0--0---0---0---2--2---2---2---0--0---0---0---2--2---2---2---| Dash seven pointed down ----------------------------------------------------------------- ----------------------------------------------------------------- -------0--------------0--------------0-----------------0--------- -----------4---4----------4---4----------4------4----------4---4- -----2-----------0--------------2-----------------0-------------- -0---0---0---0---2--2---2---2---0--0---0----0-----2--2---2---2--- Captain's an-nouncement doesn't ----------------------------------------------------------------- ----------------------------------------------------------------- ------------0--------------------0------------------0------------ ------------------4----4---------4---4---4--------------4------4- ---------2------------------0--------0-----2------------0-------- -0-------0-----0-----0------2--2---2---2---0------0---0----0----- make a -------------------| -------------------| -------------0-----| ---------4-------0-| -0-------0-----0---| -2----2----2-------| sound -----------------------0-------------------------------0-------0------ ------0---0------------0--------------0-------------------0-------0--- ------9---9---0-9/11----------0-------9---9---0-9/11------------------ ----------------0----0----0---------------------0------------0-------- ----------------0---------------/7--7-------7---0----0--------------0- -0--0---0---0---------------0----------------------------------------- 'Cause I've found the way those engines sound -0------------|---------------------------------------------------- ----0---0-----|------0--0---0--------0--0-------------------------- --------------|------4--4---4---------------------------------0---- ------0-------|--------------------------------------------0------- ------0-------|-0--0------0---------------------------------------- --------------|----------------4---4--------4---------2------------ will make ya kiss the ground -------------------------------------------------| ---------------------0--0-----------0------------| -----------0---------0--0---0-------0---0---0----| -0-------------4-----5--5------------------------| ---------------5---5------5----------------------| ------2-----------------------2---2-------2------| I've found the way those engines sound ---------------------------------------------------- ---------------------------------------------------- ----------------------0------------------------0---- ------0--0---0-----------0--------0---------0------- -0--0------0---------------------------------------- ----------------4---4--------4---------2------------ will make ya kiss the ground when -------------------------------------------------| ------------------------------------0------------| -0---------0-----0---0--0---0-------0---0---0----| ---------------4---4-5----5----------------------| ---------------5---5-----------------------------| ------2-----------------------2---2-------2------| you touch down ------------------------------------------------------------------| ------------------------------------------------------------------| -----------0--------------0--------------0------------------------| ---------------4---4----------4---4----------4---4------4---0---0-| -------2-------------0--------------2--------------0--0-----------| -0-----0-----0---0---2--2---2---2---0--0---0---0---2--2---2---2---| ------------------------------------------------------------------| ------------------------------------------------------------------| -----------0--------------0--------------0------------------------| ---------------4---4----------4---4----------4---4------4---0---x-| -------2-------------0--------------2--------------0--0-----0-----| -0-----0-----0---0---2--2---2---2---0--0---0---0---2--2---2---2---| ---------------------------------| ---------------------------------| ---------------------------------| ------10--------------9-------4--| -8--------8-------------7----2--| -0--0-------0-x-0---x---------0--|








О сайтеАккордыХит-парадПоискУроки ФорумыИщу песню
ПрограммыСвежачок-сПодпискаСтатьи
Яндекс.Метрика