Аккорды Wilco | That`s Not The Issue гитара табулатуры уроки тексты песен Wilco текст lyrics песня аккорды песни ноты нота электрогитара струна  
   А Б В Г Д Е Ж З И К Л М Н О П Р С Т У Ф Х Ч Ш Ы Э Ю Я       Разные песни
1-9 A B C D E F G H I J K L M N O P Q R S T U V W Y Z      Все исполнители

    



группа Wilco, Аккорды песни That`s Not The Issue

Группа: Wilco - другие аккорды (89),   диски (6),   фотографии (7)
Аккорды песни: That`s Not The Issue
Просмотров: 982
Прислал: Echo (indiespace@akkords.ru)




     C
                                               F
------------------------------------------------------------
------------------------------------------------------------
-----5-----5-----5-----5-----5---7b9--7b9--7^5----5---------
-5^7---5^7---5^7---5^7---5^7-------------------7------------
------------------------------------------------------------
------------------------------------------------------------
            C                          Am
-------------------8------8------8-10--10b12--10b12-10--8---
---------------------8^10---8^10----------------------------
------------5-7/9-------------------------------------------
-7^5-7--5^7-------------------------------------------------
------------------------------------------------------------
------------------------------------------------------------
                                               F
------------------8-----------------------------------------
-10-8-10---8-9-10---10-8-----------------------6^5---6^5----
-------------------------97-5---5-7b9-9b7-5-------5-----5--
-------------------------------7-------------7--------------
------------------------------------------------------------
------------------------------------------------------------
------------------------------------------------------------
-6^5---6^5---6^5---6^5---6^5---6^5---6^5---6^5---6^5---6^5--
-----5-----5-----5-----5-----5-----5-----5-----5-----5------
------------------------------------------------------------
------------------------------------------------------------
------------------------------------------------------------
                           C
------------------------------------------------------------
---8^5---6^5---8^5---6^5------------------------------------
-5-----5-----5-----5-----5-7b9--7b9--7^5---5~---------------
-----------------------------------------7----7-5-7-0-------
------------------------------------------------------7b5-3-
------------------------------------------------------------
                                                         Am
-------------------------------------------8-5--------------
---------------------------8--8----------------8------------
--------------5-7--7b9b7b9----9b7--5--7b9--------9b7b9b7-5~-
-----5--5^6^7-----------------------------------------------
-5/7--------------------------------------------------------
------------------------------------------------------------
   C
---------------------------------------8------8------8------

Продолжаем грести бабос на ботах в Telegram.
Только в этот раз есть вариант автоматизировать это дело, привлекая рефералов. Вы можете заработать если »

-------------8----8----8-----------------8^10---8^10---8^10- -------5-7b9---b9---b9---9b7-5---5-7/9---------------------- -7-5^7-------------------------7---------------------------- ------------------------------------------------------------ ------------------------------------------------------------ -8------8--| ---8^10----| -----------| -----------| -----------| -----------| C F You've got a problem, I think you know C Am I'll tell you mine before you go F C You've been thinking about somebody new C F C/E C Am C That's not the issue C F Secrets, I have some too C Am I'll tell you mine before I say goodbye to you F C I've been thinking 'bout leaving too C F C/E C Am C C Db C Db C Db C That's not the issue [Solo over verse chords] C F I'm leaving, I'm leaving now C Am I'd say goodbye, but I don't know how F C You've been sleeping with somebody new C F C/E C Am C That's not the issue Outtro: | C | C | C | Db :| The Db is played like a C-open chord, just moved up a fret, and muting out the E strings; so I guess it's a Dbadd#11: -0------ -1---2-- -0---0-- -2---3-- -3---4-- -------- C Dbadd#11

Уборка после ремонта в Иваново
по продаже квартир в Иваново
ostrovokchistoti.ru







О сайтеАккордыХит-парадПоискУроки ФорумыИщу песню
ПрограммыСвежачок-сПодпискаСтатьи
Яндекс.Метрика