Табулатура Wilco | I Thought I Held You гитара табулатуры уроки тексты песен Wilco текст lyrics песня аккорды песни ноты нота электрогитара струна  
   А Б В Г Д Е Ж З И К Л М Н О П Р С Т У Ф Х Ч Ш Ы Э Ю Я       Разные песни
1-9 A B C D E F G H I J K L M N O P Q R S T U V W Y Z      Все исполнители

    



группа Wilco, Табулатура песни I Thought I Held You

Группа: Wilco - другие аккорды (89),   диски (6),   фотографии (7)
Табулатура песни: I Thought I Held You
Просмотров: 1129
Подобрал: Dave Shapiro (dshapir@argo.ecte.uswc.uswest.com)




    
Intro
  G             C                D            C               G
B|-4^5---0------0-----0--0---0--------0---0----------------0-----0--
a|---------0----1-(1)-1----0-----------------------------------0----
n|-----------0-------------------2--2---2-----0--0-------0----------
j|-----------------------------0------------0------0-0^2------------
o|-----0------------------------------------------------------------
 |       
A|-------------------------------0------------2---------------------
 |-------------------------------3------------1---------------------
G|-------------------------------0------------0---------------------
u|-------------------------------4------------2---------------------
i|-------------------------------5----------------------------------
t|------------------------------------------------------------------
 |
E|---------------------------------------------------3--------------
 |-------------------------------------------------------3----------
G|---------------------------------------------------------3b2------
u|-------------------------------------------------------------0----
i|------------------------------------------------------------------
t|---------------------------------------------------------------3--
  G            C                  D                C
|-4^5---0-----0--------------0---------0---0---------0------
|---------0---1---1-----------------------------------------
|-----------0--------------0-----2--2----2--------0---------
|--------------------0-0^2-----0---------------0------------
|-----0-----------------------------------------------------
|
|---0-0-0-0---0------------0-0---4----------------2---------
|---0-0-3-0---1------------0-1---3----------------1---------
|---0-0---------0----------0-----2----------------0---------
|---0----------------------0-----0----------------2---------
|-----------------------------------------------------------
|-----------------------------------------------------------
|
|---3-3-3-3---3------------------------2-3-----3--3---------
|-------3-3---3------------------------3-3-3------3---------
|---------4---5-----------------------------------5---------
|--------------------------------0--------------------------
|--------------------------2-3------------------------------
|-----------------------------------------------------------
                  G
|---------------0--|
|------------------|
|--------0---------|
|-0--0^2----0------|
|------------------|
|                  |
|--------0--0------|
|--------1--0------|
|--------0--0------|
|------------------|
|------------------|
|------------------|
|                  |
|------------------|
|------------------|
|--------0---------|
|----0^2----2^0----|
|---------------2--|
|-----------------3|
Verse
  You're like a moon that's full
  G            C                  D                C
|-4-----^5------0-----------0---0----------0---------0---0-------------
|--------------------0------1---1--------------------------------------
|----------------------0-----------------0-----2--2----2-----------0---
|----------------------------------0-0^2-----0---------------0--0------
|-------------0--------------------------------------------------------
|
|-------------5^0----------------------------0-4-------4-5------2------
|--------------------0------1------------0-1---3-------3-3------1------
|----------------------0-----------------------2----------------0------
|---------------------------------------------------------------2------
|----------------------------------------------------------------------
|----------------------------------------------------------------------
|
|----------------------------------------------2-------2-3---3--3------
|----------------------------------------------3-------3-3------3------
|----------------------------------------------2----------------5------
|--------------------------------------------0-------------------------
|----------------------------------------2-3---------------------------
|----------------------------------------------------------------------
                  G
|---------------0---
|-------------------
|--------0----------
|-0--0^2----0-------
|-------------------
|                   
|--------0--0-------
|--------1--0-------
|--------0--0-------
|-------------------
|-------------------
|-------------------
|                   
|-------------------
|-------------------
|--------0----------
|----0^2----2^0-----
|---------------2---
|-----------------3-
  A-cross a sea of    foam         I'm the  sky    you've been  burning
 G                    C                      D                  C
|-4^5-------0---------0---0------------0-----------0----------0------------
|---------------0-----1---1------------------------------------------------
|------------------0---------------0---------2--2-----------2-----------0--
|----------------------------0-0^2-------0------------------------0--0-----
|---------0----------------------------------------------------------------
|
|---------5^0-------------------------------0--4---4------5-----2----------
|---------------0-----1------------0---1-------3---3------3-----1----------
|------------------0---------------------------2----------------0----------
|---------------------------------------------------------------2----------

Продолжаем грести бабос на ботах в Telegram.
Только в этот раз есть вариант автоматизировать это дело, привлекая рефералов. Вы можете заработать если »

|-------------------------------------------------------------------------- |-------------------------------------------------------------------------- | |----------------------------------------------2---2------3-3---3---------- |----------------------------------------------3---3------3-----3---------- |----------------------------------------------2----------------5---------- |-------------------------------------------0------------------------------ |----------------------------------2---3----------------------------------- |-------------------------------------------------------------------------- G |-----------------0--| |--------------------| |-0--------0---------| |---0--0^2----0------| |--------------------| | | |----------0--0------| |----------1--0------| |----------0--0------| |--------------------| |--------------------| |--------------------| | | |--------------------| |--------------------| |----------0---------| |------0^2----2^0----| |-----------------2--| |-------------------3| Pre-chorus G G Bm C |-------0---0----------0-0---------0----2--0--------0------- |-0--0----0---0--0--0--1-0---0--0-------------0-----1------- |--------------------------2---------0-----------0---------- |----------------------------------------------------------- |----------------------------------------------------------- | |-0-----------------------------4-------------------2------- |-0-----------------------------3-------------------1------- |-0-----------------------------4-------------------0------- |-0-----------------------------4-------------------2------- |----------------------------------------------------------- |----------------------------------------------------------- | |----3--------------3--------------3------------------------ |-------3--------------3----------------3------------------- |-----------0--------------0------------------0------------- |----------------------------------------------------------- |-------------------------------2-------------------3------- |-3--------------3------------------------------------------ G G |---------------------------0-0---0-----------0-0----------- |---------------------0-----1-0----------0----1-0----0------ |-0-----0^2--0-----0-----0------2----2/4---0-------2-------- |----2----------2------------------------------------------- |----------------------------------------------------------- | |---------------------0------------------------------------- |---------------------0------------------------------------- |---------------------0------------------------------------- |---------------------0------------------------------------- |----------------------------------------------------------- |----------------------------------------------------------- | |-3----------------------3---------------3------------------ |-------3-------------------3-----------------3------------- |---------------0---------------0------------------0-------- |----------------------------------------------------------- |----------------------------------------------------------- |--------------------3---------------3---------------------- Bm C D11(no7) |-----0-----2--0----------------0--------------------------| |-0--------------0-----------------------------------------| |--------0---------0----0-----0---------0--0---0^2-0-----0-| |--------------------2----0^2-----0--2-------2--------2----| |----------------------------------------------------------| | | |-4------------------2---------------------0-0-0------0----| |-3------------------1---------------------1-1-1/--3--3----| |-4------------------0---------------------0-0-0------0----| |-4------------------2---------------------2-2-2/--4--4----| |------------------------------------------3-3-3/--5--5----| |----------------------------------------------------------| | | |-----3-----------------3------------0-----0-0-0------0----| |-----------3-------------3----------1-----1-1-1/--3--3----| |----------------0--------------0----0-----0-0-0------0----| |------------------------------------2-----2-2-2/--4--4----| |-2------------------3---------------3-----3-3-3/--5--5----| |----------------------------------------------------------| Chorus C D G C I don't think you even understand C D G C I thought I held you by the hand D I thought I held you Solo (Pedal steel arranged for elec. guitar, std. tuning) G C D C/E --------------------------------14/1514--12---------------- ----------------------------------------------15b13--------- ----12-14-14b16---16b14--11b12------------------------------ -12--------------------------------------------------------- ------------------------------------------------------------ ------------------------------------------------------------ G C D C/E ----------12--------------------------------------| -------15----15-----15----------------------------| ----17----------17--14b16b14^12--11/12--14--------| -17-----------------------------------------------| --------------------------------------------------| --------------------------------------------------| Verse G C I'm like a songwriter D C You're the reason I've run out G C Run out of metaphors Pre-chorus Chorus Verse Have fun,








О сайтеАккордыХит-парадПоискУроки ФорумыИщу песню
ПрограммыСвежачок-сПодпискаСтатьи
Яндекс.Метрика