Аккорды Wilco | Casino Queen гитара табулатуры уроки тексты песен Wilco текст lyrics песня аккорды песни ноты нота электрогитара струна  
   А Б В Г Д Е Ж З И К Л М Н О П Р С Т У Ф Х Ч Ш Ы Э Ю Я       Разные песни
1-9 A B C D E F G H I J K L M N O P Q R S T U V W Y Z      Все исполнители

    



группа Wilco, Аккорды песни Casino Queen

Группа: Wilco - другие аккорды (89),   диски (6),   фотографии (7)
Аккорды песни: Casino Queen
Просмотров: 1349
Подобрал: SETH CONANT (sconant@u.washington.edu)




    
RIFF #1:
E-3-2-1-0-0-0-0-0-------3-2-1-0-0-0-0-0-------3-2-1-0-0-0-0-0-----------
B-0-0-0-1-1-1-3-0-0-0---0-0-0-1-1-1-3-0-0-0---0-0-0-1-1-1-1-1-3-0-------
G-----------------0-0-------------------0-0-------------------2-0-0-0---
D-----------------------------------------------------------------0-0---
A-----------------------------------------------------------------------        
E-----------------------------------------------------------------------
        
RIFF #2:
E------------------     
B-----3------------
G-24---42-0------      = slide to
D------------------
A------------------
E------------------

Here's the song:

INTRO:
RIFF#1

1ST VERSE:
G
Well the money's pouring down 
G
And the people all look down
G
And it's floating out of town  (RIFF #2)
G
I hit the second deck
G

Продолжаем грести бабос на ботах в Telegram.
Только в этот раз есть вариант автоматизировать это дело, привлекая рефералов. Вы можете заработать если »

And I spent my paycheck G And my wife that I just met G She's looking like a wreck CHORUS: G D G Casino Queen G C G My Lord you're mean G D Well I've been gambling like a fiend D C G On your table so green (RIFF #1) 2ND VERSE: G I always bet on black G Black Jack G I'll pay you back (RIFF #2) G The room fills with smoke G And I'm already broke G And the dealer keeps on chokin' G As he takes by last token (CHORUS) (SOLO in D) (RIFF #1) (CHORUS)








О сайтеАккордыХит-парадПоискУроки ФорумыИщу песню
ПрограммыСвежачок-сПодпискаСтатьи
Яндекс.Метрика