Аккорды Wilco | I Must Be High гитара табулатуры уроки тексты песен Wilco текст lyrics песня аккорды песни ноты нота электрогитара струна  
   А Б В Г Д Е Ж З И К Л М Н О П Р С Т У Ф Х Ч Ш Ы Э Ю Я       Разные песни
1-9 A B C D E F G H I J K L M N O P Q R S T U V W Y Z      Все исполнители

    



группа Wilco, Аккорды песни I Must Be High

Группа: Wilco - другие аккорды (89),   диски (6),   фотографии (7)
Аккорды песни: I Must Be High
Просмотров: 681
Подобрал: Dave (dshapir@argo.ecte.uswc.uswest.com)




    

There are five chords used in this tune. They're pretty standard:
---0---------0-------2-------0-----2---
---2---------2-------3-------0-----3---
---2---------1-------2-------1-----4---
---2---------2-------0-------2-----4---
---0---------0------(0)------2-----2---
-----------------------------0---------
   A       Amaj7     D       E     Bm
The acoustic plays those chords. The electric gets the lead stuff. So
here's how it goes:

Intro
 A           Amaj7   D                 E                    A
------------------------------------2-----------------------|
------5-----------------------------------------------------|
-4b6--6b4--2-1--------------2--4b6-----4b6b4-2--------------|
-----------------2--0--2/4---------------------0-4----------|
---------------------------------------------------2b3b2--0-|
------------------------------------------------------------|
A   Amaj7                    D      E
You       always wanted more time
           A   Amaj7               D       E
To do what you       always wanted to do
                     A  Amaj7
Now you got it, and I

              D  Bm
I must be high
              A  Amaj7
To say goodbye
           D
Bye bye bye
--------------
--------------
-4-4-4-4-4-5--
-4-4-4-4-4-5--
-2-2-2-2-2-3--
--------------
A   Amaj7                       D     E
You       never said you needed this
                           A      Amaj7              D       E
And you're pissed that you missed       the very last kiss
                   A  Amaj7
>From my lips, and I

              D  Bm
I must be high
              A  Amaj7
To say goodbye
           D
Bye bye bye
--------------
--------------
-4-4-4-4-4-5--
-4-4-4-4-4-5--
-2-2-2-2-2-3--
--------------

[Bridge]
 A             A           Amaj7        Amaj7
------------------------------------------------------------
-----------2---------------2--------2---2-------------------
-2---1-2-4-2---2-1-2---2---1----2-4-2---1----2-4-2----------
-2---2-2-4-2---2-2-2-4-2---2--2-2-4-----2--2-2-4-2----------
-0---0---------0-0---------0--0---------0--0----------------
------------------------------------------------------------
 F#m          F#m          B5         C5
------------------------------------------|
------------------------------------------|

Продолжаем грести бабос на ботах в Telegram.
Только в этот раз есть вариант автоматизировать это дело, привлекая рефералов. Вы можете заработать если »

------2-4-2--------2-4-2---4--2-4-2-4-5---| -4--2-2-4-2---4--2-2-4-2---4--2-4-2-4-5---| -4--2---------4--2---------2----------3---| -2------------2---------------------------| Solo (Pedal steel arranged for slide guitar) A Amaj7 D E A Amaj7 ----5--^0-----0--------------------------17--17--17/191716 -/5-------/9-------------12/15----12/17------17------------- ----------/9------------------------------------------------ -----------------11/12-------------------------------------- ------------------------------------------------------------ ------------------------------------------------------------ D E A --------------------12--14--------------------| -17--14/15~---/14----------1412--10-12-10---| ----------------------------------------------| ----------------------------------------------| ----------------------------------------------| ----------------------------------------------| A Amaj7 D E You never looked in my eyes A Amaj7 D E Long enough to find any piece of mind A Amaj7 But now you got it, and I D Bm I must be high A Amaj7 To let you say goodbye D Bm A Amaj7 I must be high -------------- D -------------- Bye bye bye -4-4-4-4-4-5-- A Amaj7 -4-4-4-4-4-5-- -2-2-2-2-2-3-- -------------- ----------------- D ----------------- Bye bye bye -4-4-4-4-4-5--2-- -4-4-4-4-4-5--2-- -2-2-2-2-2-3--0-- ----------------- [Outtro] A A Amaj7 Amaj7 ------------------------------------------------------------ -----------2---------------2--------2---2------------------- -2---1-2-4-2---2-1-2---2---1----2-4-2---1----2-4-2---------- -2---2-2-4-2---2-2-2-4-2---2--2-2-4-----2--2-2-4-2---------- -0---0---------0-0---------0--0---------0--0---------------- ------------------------------------------------------------ F#m F#m B5 C5 Aadd9 ------------------------------------------0-----| ------------------------------------------0-----| ------2-4-2--------2-4-2---4--2-4-2-4-5---2-----| -4--2-2-4-2---4--2-2-4-2---4--2-4-2-4-5---2-----| -4--2---------4--2---------2----------3---0-----| -2------------2---------------------------------|








О сайтеАккордыХит-парадПоискУроки ФорумыИщу песню
ПрограммыСвежачок-сПодпискаСтатьи
Яндекс.Метрика