Аккорды Radiohead | 2+2=5 гитара табулатуры уроки тексты песен Radiohead текст lyrics песня аккорды песни ноты нота электрогитара струна  
   А Б В Г Д Е Ж З И К Л М Н О П Р С Т У Ф Х Ч Ш Ы Э Ю Я       Разные песни
1-9 A B C D E F G H I J K L M N O P Q R S T U V W Y Z      Все исполнители in english

    



группа Radiohead, Аккорды песни 2+2=5

Продолжаем грести бабос на ботах в Telegram.
Только в этот раз есть вариант автоматизировать это дело, привлекая рефералов. Вы можете заработать если »

Группа: Radiohead - другие аккорды (189),   о группе (6 статей),   диски (9),   фотографии (134)
Аккорды песни: 2+2=5
Просмотров: 2979
Прислал: Echo (indiespace@akkords.ru)




    
    ---------------------------------------------------------------------------------------------- 
    i                                                                                            i
    i  (Fm)                         (F M7 sus2)                                                  i
e---i--------------------------------------------------------------   repeat                     i 
b---i--------------------------------------------------------------                              i
g--1---------------1---------------0---------------0------------(1) <--this would be this one ---i
d-------3--------3-------3-------3-------3-------3-----3------3----
a--------------3---------------3---------------3------------3------
E------------1---------------1---------------0------------0--------

enter lyrics, continue playing this.

then it changes when thom says "when two and two"
instead of "1" in g sting you play:
  (F)                            (F# dim)    (Gm)          (Fm)          (C)
e------------------------------------------------------------------------------------------------------------------ start over
b------------------------------------------------------------------------------------------------------------------ part 1
g---2--------------2------------2------------3-------------1--------------0-----------0-------------0-----------(1)
d-------3--------3-----3------3------4-----4------5------5------3------3------2-----2-----2-------2----------2-----
a--------------3------------3------------3-------------5-------------3------------3-------------3----------3-------
E------------1------------1------------2-------------3-------------1------------3-------------3----------3---------

repeat until

it's the devil's way

guitar plays in the B string

    (Fm)               (Em)               (C#)             (C)              (D#)              (C#)                        (C)       
b---9-9-9-9-9 (etc)----8-8-8-8-8-(etc)----6-6-6-6-6 (etc)--8-8-8-8-8(etc)---8-8-8-8-8(etc)----6-6-6-6-6(etc)-11--6-6-6-11--8-8-8-8-8(etc)

then thom sings

because!!!
(Fm)
you're not there 
(Em)
payin' attention 
(C#)
payin' attention 
(C)
payin' attention 
(C)
payin' attention 
(D#)            (C#)  
yeah i feel it, i needed attention 
(C#)
payin’ attention
(C)
payin’ attention
(C)
payin’ attention
(Fm)            (Em)
yeah i need it, i needed attention
(C#)
i needed attention 
(C)
i needed attention
(C)

Продолжаем грести бабос на ботах в Telegram.
Только в этот раз есть вариант автоматизировать это дело, привлекая рефералов. Вы можете заработать если »

i needed attention (D#) (C#) yeah i love it, the attention (C#) payin’ attention (C) payin’ attention (C) payin’ attention soon oh strum theese chords but only play the 6th, 5th, 4th and 3rd strings G# G# G#G#G# A#A# G# G# G#G#G# A#A# G G G G G A#A# G G G G G A#A# solo: e--8-8-8-8-8-8-8-8-8-8-8-8-8-8-8-8-8-8-8-8-8-8-8-8-8-8-8-8-8-8-8-8-8-8-18-18-18-18-18-18-18-18-18-18-18-19-19-19-19(etc)--------------------- then lyrics come again: (C#) i try to sing along but the music's all wrong (G) cos i’m not cos i’m not (C#) i’ll swallow up flies ? back and hide (G) but i’m not (C#) oh hail to the thief oh hail to the thief (G) but i'm not but i'm not but i'm not but i'm not (C#) don't question my authority or put me in the box (G) cos i'm not cos i'm not (C#) oh go up to the king, and the sky is falling in (G) but its not but its not maybe not maybe not.

найти лекарство
список лекарств






О сайтеАккордыХит-парадПоискУроки ФорумыИщу песню
ПрограммыСвежачок-сПодпискаСтатьи
Яндекс.Метрика