Табулатура Ария | Беспечный ангел  (3) гитара табулатуры уроки тексты песен Ария текст lyrics песня аккорды песни ноты нота электрогитара струна  
   А Б В Г Д Е Ж З И К Л М Н О П Р С Т У Ф Х Ч Ш Ы Э Ю Я       Разные песни
1-9 A B C D E F G H I J K L M N O P Q R S T U V W Y Z      Все исполнители in english

    



группа Ария, Табулатура песни Беспечный ангел (3)

Продолжаем грести бабос на ботах в Telegram.
Только в этот раз есть вариант автоматизировать это дело, привлекая рефералов. Вы можете заработать если »

Группа: Ария - другие аккорды (629),   о группе (7 статей),   диски (18),   фотографии (92)
Табулатура песни: Беспечный ангел (3)
Просмотров: 9376
Прислал: Артур-Махмутов (Nikitos@mail.ru)




    
Подбирал Naric
Понеслась!
             EM     C             G
6|-3-------0-------------------3----------3---------------|
5|---0-2----2-----2-3-------------------------------------|
4|-------0---2---2---2----2-2-----0--0--0---0-------------|
3|------------0-0-----0----0-0-----0--0--0---0------------|
2|-------------0-------1------------0---------0-----------|
1|--------------------------------------------------------|
              EM    C          G
6|-3-------0-------------------3--------------------------|
5|---0-2----2-----2-3-------------------------------------|
4|-------0---2---2---2----2-2----0------------------------|
3|------------0-0-----0----0-0----0-----------------------|
2|-------------0-------1-----------0----------------------|
1|----------------------------------1---------------------|
              EM     C           G
6|-3-------0-------------------3---------3-----------|
5|---0-2----2-----2-3--------------------------------|
4|-------0---2---2---2-----------0--0-0----0---------|
3|------------0-0-----0---2-2-----0--0-0----0--------|
2|-------------0-------1---0-0-----0---------0-------|
1|---------------------------------------------------|
             EM     C          D              D
6|-3-------0----------------------------------------------------|
5|---0-2----2-----2-3-------------------------------------------|

Продолжаем грести бабос на ботах в Telegram.
Только в этот раз есть вариант автоматизировать это дело, привлекая рефералов. Вы можете заработать если »

4|-------0---2---2---2----2-2--0-------------0------------------| 3|------------0-0-----0----0-0--2-----------2-2-----------2-----| 2|-------------0-------1---------3---------3---3---------3------| 1|--------------------------------2-3-2h3p2-----2-0-0h2p0-------| AM G D AM D EM C 6|------------3----------------------------------------------------0---------------------| 5|-0-------------------------------------0--------------------------2-----2-3------------| 4|--2-----2-----0-----0-0-----------------2-----3--0-----------------2---2---2--2-2------| 3|---2---2-------0---0---2-----------2-----2---2----2------------2----0-0-----0--0-0-----| 2|----1-1---------0-0-----3---------3-------1-1------3----------3------0-------2---------| 1|-----0-----------1-------2-3-2h3p2---------0---------2-3-2h3p2-------------------------| D 6|--0---0---0---0---0---------| 5|--0---0---0---0---0---------| 4|--0---0---0---0---0---------| 3|--2---2---2---2---2---------| 2|--3---3---3---3---3---------| 1|--2---3---3---3---2---------| Припев: EM C D C B EM C D C D AM C G 6|---------------------3---------3---------------------| 5|--0--------3-----------------------------------------| 4|---2-----2--2--2-2-----0-----0-----------------------| 3|----2---2----0--0-0-----0---0------------------------| 2|-----1-1------1----------0-0-------------------------| 1|------0-------------------1--------------------------| КЛЁВО ЗВУЧИТ!!!!!!!

поиск лекарств
список лекарств






О сайтеАккордыХит-парадПоискУроки ФорумыИщу песню
ПрограммыСвежачок-сПодпискаСтатьи
Яндекс.Метрика