Табулатура Radiohead | Knives Out  (2) гитара табулатуры уроки тексты песен Radiohead текст lyrics песня аккорды песни ноты нота электрогитара струна  
   А Б В Г Д Е Ж З И К Л М Н О П Р С Т У Ф Х Ч Ш Ы Э Ю Я       Разные песни
1-9 A B C D E F G H I J K L M N O P Q R S T U V W Y Z      Все исполнители in english

    



группа Radiohead, Табулатура песни Knives Out (2)

Работа в Европе для граждан РФ, Украины, СНГ

  • минимальная зарплата $500.
  • виза и контракт на полгода, возможно продление
  • проживание оплачивает работодатель
  • нужен только загранпаспорт
  • оформление 190 €
  • данное предложение - отличная возможность эмигрировать в Европу и закрепиться здесь навсегда.

  • Мы свяжемся с Вами по WhatsApp или Viber и ответим на любые вопросы.
    на нашем сайте можно почитать подробнее »

    Группа: Radiohead - другие аккорды (189),   о группе (6 статей),   диски (9),   фотографии (134)
    Табулатура песни: Knives Out (2)
    Просмотров: 1455
    Прислал: Echo (indiespace@akkords.ru)




        
    E||------------------------|------------------------|------------------------|
    B||-------------8--8-------|-------------8--8-------|-------------4--4-------|
    G||-------8--8--------8----|-------7--7--------7----|-------5--5--------5----|
    D||------------------------|------------------------|------------------------|
    A||------------------------|------------------------|------------------------|
    E||--8---------------------|--6---------------------|--4---------------------|
    
                                                                                 
    -------------------------|-------------------------|------------------------|
    ----------------------4--|--------------4----------|-------------3--3-------|
    -------------5--5--------|--------5--------5-------|-------3--3--------3----|
    -------5--5--------5-----|-----5-----5--------5----|------------------------|
    -------------------------|-------------------------|------------------------|
    --4----------------------|--4----------------------|--3---------------------|
    
                                                                           
    ------------------------|-------------0----------|--------------------|
    -------------3--3-------|----------------3----2--|--------------------|
    -------2--2--------2----|-------0--0-------------|--------0-----------|
    ------------------------|------------------------|-------------2------|
    ------------------------|------------------------|--------------------|
    --1---------------------|--0---------------------|--------------------|
    
                                                                            
    -------------0----------|---------------------|------------------------|
    ----------------3----2--|---------------------|-------------8--8-------|
    ----------0-------------|---------0-----------|-------8--8--------8----|
    -------2----------------|----2---------2------|------------------------|
    ------------------------|---------------------|------------------------|
    --0---------------------|---------------------|--8---------------------|
    
                                                                                
    ------------------------|-------------------------|------------------------|
    -------------8--8-------|-------------4--4--------|---------------------4--|
    -------7--7--------7----|-------5--5--------5-----|------------5--5--------|
    ------------------------|----------------------5--|------5--5--------5-----|
    ------------------------|-------------------------|------------------------|
    --6---------------------|--4----------------------|------------------------|
    
                                                                              
    -----------------------|------------------------|------------------------|
    -----------------------|-------------3--3-------|-------------3--3-------|
    ------------5--5-------|-------3--3--------3----|-------2--2--------2----|
    ------5--5--------5----|------------------------|------------------------|
    -----------------------|------------------------|------------------------|
    -----------------------|--3---------------------|--1---------------------|
    
                                                                                 
    -------------------------|------------------------|-------------------------|
    -------------2--2--------|------------------------|-------------------------|
    -------0--0--------0-----|-------------0--0-------|----------------------0--|
    ----------------------2--|-------2--2--------2----|-------------2--2--------|
    -------------------------|------------------------|-------2--2--------2-----|
    --0----------------------|--0---------------------|--0----------------------|
    
                                                                              
    -----------------------|------------------------|------------------------|
    -----------------------|-------------8--8-------|-------------8--8-------|
    -------0---------------|-------8--8--------8----|-------7--7--------7----|
    ---------------2-------|------------------------|------------------------|
    -----------------------|------------------------|------------------------|
    --0-------2-------3----|--8---------------------|--6---------------------|
    
                                                                               
    -------------------------|----------------------3--|----------------------|
    -------------4--4--------|-------------4-----------|----4----------4------|
    -------5--5--------5-----|----------5-----5--------|---------5------------|
    ----------------------5--|-------5-----------5-----|------------5---------|
    -------------------------|-------------------------|----------------------|
    --4----------------------|--4----------------------|----------------------|
    
                                                                            
    ------------------------|---------------------|-------------0----------|
    -------------3--3-------|------------3--------|----------------3----2--|
    -------3--3--------3----|-------2-------------|----------0-------------|
    ------------------------|---------------------|-------2----------------|
    ------------------------|---------------------|------------------------|
    --3---------------------|--1------------------|----0-------------------|
    
                                                                        
    --------------------|------------------------|---------------------|
    --------------------|------------------------|---------------------|
    --------------------|------------------------|---------------------|
    --------2-----------|-----2-------2--0-------|---------2-----------|
    -------------2------|----------2----------4--|---------0-----------|
    --------------------|--0---------------------|----0---------0------|
    
                                                                        
    ---------------------|----------------------|----------------------|
    --1------------------|--2-------------------|--2---------3----5----|
    -------2-------------|-------2--------------|-------2--------------|
    ------------2--------|------------2---------|----------------------|
    ---------------------|----------------------|----------------------|
    ---------------------|-----------------3----|----------------------|
    
                                                                         
    ----------------------|----------------------|----------------------|
    --6-------------------|--7-------------------|--7---------5----7----|
    -------7--------------|-------7--------------|-------7--------------|
    ------------7---------|------------7---------|----------------------|
    -----------------0----|-----------------0----|----------------------|
    ----------------------|----------------------|----------------------|
    
                                                                         
    --3----------3-------|---------3------------|----------3----3-------|
    --3------------------|-------------------3--|--3--------------------|
    --0------------------|--------------0-------|-----------------------|
    --0-------------1----|--0-------------------|--0----0----------1----|
    ---------------------|----------------------|-----------------------|
    --3------------------|----------------------|-----------------------|
    
                                                                          
    ---------3----------|-------------------------|----------------------|
    ---------3----------|-------------------------|----------------------|
    ---------0----------|-------------------------|-------------------0--|
    --0-----------------|-----0-----0-----0-------|----------------------|
    --------------------|--4-----4-----4-------4--|----2---------2-------|
    --------------------|-------------------------|---------0----0-------|
    
                                                                              
    -------------------------|---------------------|--------------6----------|
    -------------------------|---------------------|--------8--------8----8--|
    -------------------------|--------------0------|-----8-----8-------------|
    -----0-----0-----0-------|--------------2------|-------------------------|
    --4-----4-----4-------4--|----2----------------|-------------------------|
    -------------------------|---------0-----------|--8----------------------|
    
                                                                                 
    --------------6---------|--------------3----------|--------3----------------|
    --------8--------8------|--------4-------------4--|-----4-----4-----4-------|
    -----7-----7------------|-----5-----5-------5-----|--------------5----------|
    ------------------------|-------------------------|----------------------5--|
    ------------------------|-------------------------|-------------------------|
    --6---------------------|--4----------------------|--4----------------------|
    
                                                                                  
    --4--3-------------------|--------------1----------|--------------1----------|
    -----------4-------------|--------3--------3----3--|--------3--------3----2--|
    ----------------5--------|-----------3-------------|-----------2-------------|
    --------5----------5-----|-----5-------------------|-----3-------------------|
    ----------------------6--|-------------------------|-------------------------|
    -------------------------|--3----------------------|--1----------------------|
    
                                                                              
    ---------------------0--|----------------------|----------------------0--|
    --------2---------------|----3----2------------|--------2-------3--------|
    ----------------0-------|--------------0-------|-------------0-----0-----|
    -----2-------2----------|-------------------2--|-----2-------------------|
    ------------------------|----------------------|-------------------------|
    --0---------------------|----------------------|--0----------------------|
    
                                                                             
    ---------------------|--------6-----8--6-------|--------6-----8--6------|
    ----3----2-----------|-----------8----------8--|-----------8------------|
    --------------0------|-----8-------------------|-----7------------------|
    ---------------------|-------------------------|------------------------|
    ---------------------|-------------------------|------------------------|
    ---------------------|--8----------------------|--6---------------------|
    
                                                                            
    --------------3-----------|----3--------------4--|----3----------------|
    --------4--------4-----4--|---------4------------|---------4-----------|
    -----5-----5--------5-----|--------------5-------|--------------5------|
    --------------------------|----------------------|---------------------|
    --------------------------|----------------------|---------------------|
    --4-----------------------|----------------------|---------------------|
    
                                                                                  
    --------------1----------|--------------1----------|--------------0----------|
    --------3--------3----3--|--------3--------3-------|--------2--------3----2--|
    -----------3-------------|-----------2----------0--|-------------------------|
    -----5-------------------|-----3-------------------|-----2-----2-------------|
    -------------------------|-------------------------|-------------------------|
    --3----------------------|--1----------------------|--0----------------------|
    
                                                                              
    ------------------------|------------------------|--------------------0--|
    ------------------------|------------------------|-----0----2----3-------|
    ----0----------------0--|----------0----0-----0--|-----------------------|
    ---------2-----2--------|----2-------------2-----|--2--------------------|
    ------------------------|------------------------|-----------------------|
    ------------0-----0-----|-------0----------------|-----------------------|
    
                                                                      
    --------------------------------|--------------------------------|
    -----------------1--------------|-----------------2--------------|
    ------------2---------2---------|------------2---------2---------|
    -------2-------------------2----|-------2-------------------2----|
    --0-----------------------------|--------------------------------|
    --------------------------------|--3-----------------------------|
    
                                                                      
    ---------------------------0----|-----------------1--------------|
    -----------------2----3---------|------------3---------3---------|
    ------------2-------------------|-------2-------------------2----|
    -------2------------------------|--0-----------------------------|
    --------------------------------|--------------------------------|
    --3-----------------------------|--------------------------------|
    
                                                                      
    -----------------2--------------|----------------------0----2----|
    
    Узнай ВСЕ о своем друге в ВК или FB
    ------------3---------3---------|------------3----3--------------| -------2-------------------2----|-------2------------------------| --------------------------------|--------------------------------| --3-----------------------------|--3-----------------------------| --------------------------------|--------------------------------| --3------3----3-----3--|---------3-----3-----3--|----------3----3-----3--| --3--------------------|------------------------|------------------------| --0--------------------|------------------------|-------3----------------| --0--------------1-----|--0---------------0-----|--0---------------1-----| -----------------------|------------3-----------|------------------------| --3--------------------|------------------------|------------------------| ----------3-------------|-----------------------|-----------------------| ----------------3-------|-----------------------|-----------------------| -------3----------------|---------0-------------|-----------------------| --0----------------0----|------4-----4--2----0--|---------0----2--------| -------------3----------|-----------------------|----4------------------| ------------------------|-----------------------|-----------------0--0--| ------------------------|-----------------------|------------------------| ------------------------|-----------------------|-------------8--8-------| ----------0-------------|-----------------------|-------8--8--------8----| -------4-----4--2----0--|-----------------------|------------------------| ------------------------|----4----2----0-----0--|------------------------| --0---------------------|-----------------0-----|--8---------------------| ------------------------|------------------------|-------------------------| -------------8--8-------|-------------4--4-------|----------------------4--| -------7--7--------7----|-------5--5--------5----|-------------5--5--------| ------------------------|------------------------|-------5--5--------5-----| ------------------------|------------------------|-------------------------| --6---------------------|--4---------------------|--4----------------------| ---------------------|------------------------|------------------------| --------------4------|-------------3--3-------|-------------3--3-------| ----5----------------|-------3--3--------3----|-------2--2--------2----| ---------5-----------|------------------------|------------------------| ---------------------|------------------------|------------------------| ---------------------|--3---------------------|--1---------------------| -------------------------|------------------------|-------------------------| -------------2--2--------|------------------------|-------------------------| -------0--0--------0-----|------------0--0--------|----------------------0--| ----------------------2--|------2--2--------2-----|-------------2--2--------| -------------------------|---------------------2--|-------2--2--------2-----| --0----------------------|------------------------|--0----------------------| ---------------------|------------------------|------------------------| ---------------------|-------------8--8-------|-------------8--8-------| ---------------------|-------8--8--------8----|-------7--7--------7----| ----2---------2------|------------------------|------------------------| ---------2-----------|------------------------|------------------------| ---------------------|--8---------------------|--6---------------------| ------------------------|-------------------------|----------------------| -------------4--4-------|----------------------4--|----------4-----------| -------5--5--------5----|-------------5--5--------|----5----------5------| ------------------------|-------5--5--------5-----|-------5--------------| ------------------------|-------------------------|----------------------| --4---------------------|--4----------------------|----------------------| ------------------------|------------------------|-------------------------| -------------3--3-------|-------------3--3-------|-------------------------| -------3--3--------3----|-------2--2--------2----|-------------------------| ------------------------|------------------------|-------0-----0-----0-----| ------------------------|------------------------|----4-----4-----4-----4--| --3---------------------|--1---------------------|-------------------------| -----------------------|--------------------------|----------------------| -----------------------|--------------------------|----------------------| -----------------------|--------------------------|----------------------| --0--------------------|--0-----0-----0-----0-----|--0-------------------| -----4----2----0----4--|-----4-----4-----4-----4--|-----4----2----0------| -----------------------|--------------------------|----------------------| ------------------------|------------------------|------------------------| -------------8--8-------|-------------8--8-------|-------------4--4-------| -------8--8--------8----|-------7--7--------7----|-------5--5--------5----| ------------------------|------------------------|------------------------| ------------------------|------------------------|------------------------| --8---------------------|--6---------------------|--4---------------------| ----------------------3--|---------------------|------------------------| -------------------------|----4---------4------|-------------3--3-------| -------------5--5--------|---------------------|-------3--3--------3----| -------5--5--------5-----|---------5-----------|------------------------| -------------------------|---------------------|------------------------| --4----------------------|---------------------|--3---------------------| ------------------------|----------------------0--|---------------------| -------------3--3-------|-------------2--2--------|----3----2-----------| -------2--2--------2----|-------0--0--------0-----|--------------0------| ------------------------|-------------------------|---------------------| ------------------------|-------------------------|---------------------| --1---------------------|--0----------------------|---------------------| --------------------|---------------------|--------6----------------| --------------------|---------------------|--------------8--8----8--| ----------0---------|---------------------|-----8-----8-------------| -----------------2--|----0----------------|-------------------------| --------------------|---------4-----------|-------------------------| --------------------|--------------0------|--8----------------------| --------6--6------------|-----------4----3-----4--|----3-----4----3--------| ----------------8--8----|--------4----------------|---------------------4--| -----7------------------|-----5-------------5-----|-------5----------5-----| ------------------------|-------------------------|------------------------| ------------------------|-------------------------|------------------------| --6---------------------|--4----------------------|------------------------| -----------4----3--------|-----------------------|-----------------------| --------4-------------4--|-------------3---------|-------------3---------| -----5-------------5-----|-------3--3-----3------|-------2--2-----2------| -------------------------|-----------------------|-----------------------| -------------------------|-----------------------|-----------------------| --4----------------------|--3--------------------|--1--------------------| --------------------------|-----------------------|-----------------------| --------------0--0--------|-----------------------|-----------------------| --------0--0--------0--0--|--0-------0---------0--|-----------0-----------| -----2--------------------|-------2-------2-------|--------2-------2------| --------------------------|-----------------------|-----------------------| --0-----------------------|-----------------------|--0--0-----------------| ----------------------|--------------------------------| ----------------------|-----------------1--------------| ----------0-----------|------------2---------2---------| -----------------2----|-------2-------------------2----| -----2----------------|--0-----------------------------| --0-------------------|--------------------------------| --------------------------------|---------------------------0----| -----------------2--------------|-----------------2----3---------| ------------2---------2---------|------------2-------------------| -------2-------------------2----|-------2------------------------| --------------------------------|--------------------------------| --3-----------------------------|--3-----------------------------| -----------------1--------------|-----------------2--------------| ------------3---------3---------|------------3---------3---------| -------2-------------------2----|-------2-------------------2----| --0-----------------------------|--------------------------------| --------------------------------|--3-----------------------------| --------------------------------|--------------------------------| ----------------------0----2----|--3------3----3-----3--| ------------3----3--------------|--3--------------------| -------2------------------------|--0--------------------| --------------------------------|--0--------------1-----| --3-----------------------------|-----------------------| --------------------------------|--3--------------------| ---------3-----3-----3--|----------3----3-----3--|----------3-------------| ------------------------|------------------------|----------------3-------| ------------------------|-------3----------------|-------3----------------| --0---------------0-----|--0---------------1-----|--0----------------0----| ------------3-----------|------------------------|-------------3----------| ------------------------|------------------------|------------------------| -----------------------|-----------------------|------------------------| ----------3---------0--|---------2----0--------|----------3-------------| -------0-------0----0--|----0---------------0--|-------0--0----0-----0--| ----------2------------|---------2----2--2-----|----2-------------2-----| -----------------------|-----------------------|------------------------| --0--------------------|-----------------------|------------------------| -------------------|------------------|| --0----------------|------------------|| -------------------|------------------|| -------------------|------------------|| -------------------|------------------|| -------------------|------------------||

    искать в аптеке
    список лекарств






    О сайтеАккордыХит-парадПоискУроки ФорумыИщу песню
    ПрограммыСвежачок-сПодпискаСтатьи
    Яндекс.Метрика