Аккорды Idlewild | Actually It`s Darkness гитара табулатуры уроки тексты песен Idlewild текст lyrics песня аккорды песни ноты нота электрогитара струна  
   А Б В Г Д Е Ж З И К Л М Н О П Р С Т У Ф Х Ч Ш Ы Э Ю Я       Разные песни
1-9 A B C D E F G H I J K L M N O P Q R S T U V W Y Z      Все исполнители in english

    



группа Idlewild, Аккорды песни Actually It`s Darkness

Продолжаем грести бабос на ботах в Telegram.
Только в этот раз есть вариант автоматизировать это дело, привлекая рефералов. Вы можете заработать если »

Группа: Idlewild - другие аккорды (41),   о группе (1 статей),   диски (5),   фотографии (7)
Аккорды песни: Actually It`s Darkness
Просмотров: 1125
Подобрал: STUART MAXWELL (maxwell_stuart@hotmail.com)




    
Intro-
    C#m
E--------------------------------------------------------------------------------------------------
B-----------------------7/9-----------------------------7/96------------------------------------
G-------6--6----6H8----------------6---6----6HO8--------8PO6---------------------------
D--------------------------------------------------------------------------------------------------
A--------------------------------------------------------------------------------------------------
E---------------------------------------------------------------------------------------------------
Verses 
         C#mj                                                      D#mj                    F#maj
E--------------------------------------------------------------------------------------------------
B-----------------------------------------7/9-------------------9------------9-----------------------
G----------------6---6-------------6h8---------------6-h-8------6--h--8------------------------------
D--------------------------------------------------------------------------------------------------
A--------------------------------------------------------------------------------------------------
E---------------------------------------------------------------------------------------------------
Bridge
      G#                                                                F#                       D#
      Actually its darkness------------------------ --------à----------I dunno what I'm scared of 
E--------------------------------------------------------------------------------------------------
B--------------------------------------------------------------------------------------------------
G---8----8------8-------8-------8-------8-------8-------8------13--13-11-11 10 10--6--6
D--------------------------------------------------------------------------------------------------
A--------------------------------------------------------------------------------------------------

Продолжаем грести бабос на ботах в Telegram.
Только в этот раз есть вариант автоматизировать это дело, привлекая рефералов. Вы можете заработать если »

E--------------------------------------------------------------------------------------------------- And repeat till chorus C# f# a# g# You Shed-----------à a shade-----------àof shyness-------------------------------à E-------------------------------------------------------------------------------------------------- B-------------------------------------------------------------------------------------------------- G---13^----------------------11~---------------------------------------------------------------- D-----------------------------------------------------10---------11--------13------11---h---13 A-------------------------------------------------------------------------------------------------- E--------------------------------------------------------------------------------------------------- Piano bit You don't look the same in the photograph E--------------------------------------13--------------------14----------13--------------------- B------14---------------16------------------------14------------------------------16----------- G-------------------------------------------------------------------------------------------------- D-------------------------------------------------------------------------------------------------- A-------------------------------------------------------------------------------------------------- E--------------------------------------------------------------------------------------------------

лекарство в аптеке
список лекарств






О сайтеАккордыХит-парадПоискУроки ФорумыИщу песню
ПрограммыСвежачок-сПодпискаСтатьи
Яндекс.Метрика