Табулатура Idlewild | I`m A Message гитара табулатуры уроки тексты песен Idlewild текст lyrics песня аккорды песни ноты нота электрогитара струна  
   А Б В Г Д Е Ж З И К Л М Н О П Р С Т У Ф Х Ч Ш Ы Э Ю Я       Разные песни
1-9 A B C D E F G H I J K L M N O P Q R S T U V W Y Z      Все исполнители in english

    



группа Idlewild, Табулатура песни I`m A Message

Продолжаем грести бабос на ботах в Telegram.
Только в этот раз есть вариант автоматизировать это дело, привлекая рефералов. Вы можете заработать если »

Группа: Idlewild - другие аккорды (41),   о группе (1 статей),   диски (5),   фотографии (7)
Табулатура песни: I`m A Message
Просмотров: 1386
Прислал: Mark Nellis




    
verse   do this a few times
e-----------------------------------------------------------------------------------------------------------------------
b--------6-----------6-------------6----------6------------7----------7-----------7---------------7------------------
g-----------------------------------------------------------------------------------------------------------------------
d-----6---------6-------------6----------6------------6---------6------------6--------------6------------------------
a-----------------------------------------------------------------------------------------------------------------------
e-----------------------------------------------------------------------------------------------------------------------
next part of the verse goes higher on guitar.       Do this a few times as well
e----------13---------13--------13--------13---------14---------14---------14----------14--------------------------
b-----------------------------------------------------------------------------------------------------------------------
g---13----------13---------13-------13---------13---------13---------13---------13---------------------------------
d-----------------------------------------------------------------------------------------------------------------------
a-----------------------------------------------------------------------------------------------------------------------
e-----------------------------------------------------------------------------------------------------------------------
heavy part.    Use octaves I think.
     c# 				      f#				        c#
e-----------------------------------------------------------------------------------------------------------------------

Продолжаем грести бабос на ботах в Telegram.
Только в этот раз есть вариант автоматизировать это дело, привлекая рефералов. Вы можете заработать если »

b----------------------------------------------------------------------------------------------------------------------- g---6---6--6---6---6--6---6---6---11--11-11--11-11--11--11-11--6----6---6--6--6---6--6-6-------------------- d----------------------------------------------------------------------------------------------------------------------- a---4---4--4---4---4--4---4---4---9---9---9---9---9---9---9---9---4---4---4--4--4---4--4---4-------------------- e----------------------------------------------------------------------------------------------------------------------- d#m7 c# e----------------------------------------------------------------------------------------------------------------------- b----------------------------------------------------------------------------------------------------------------------- g-8---8---8------6---5------------------------------------------------------------------------------------------------ d----------------------------------------------------------------------------------------------------------------------- a-6---6---6------4---3------------------------------------------------------------------------------------------------ e----------------------------------------------------------------------------------------------------------------------- c# d#m7 fm7 f# I am a message, I am a message, I am a message, I am a I am a

искать в аптеке
список лекарств






О сайтеАккордыХит-парадПоискУроки ФорумыИщу песню
ПрограммыСвежачок-сПодпискаСтатьи
Яндекс.Метрика