Табулатура Metallica | Trapped Under Ice гитара табулатуры уроки тексты песен Metallica текст lyrics песня аккорды песни ноты нота электрогитара струна  
   А Б В Г Д Е Ж З И К Л М Н О П Р С Т У Ф Х Ч Ш Ы Э Ю Я       Разные песни
1-9 A B C D E F G H I J K L M N O P Q R S T U V W Y Z      Все исполнители in english

    



группа Metallica, Табулатура песни Trapped Under Ice

Продолжаем грести бабос на ботах в Telegram.
Только в этот раз есть вариант автоматизировать это дело, привлекая рефералов. Вы можете заработать если »

Группа: Metallica - другие аккорды (225),   о группе (32 статей),   диски (11),   фотографии (49)
Табулатура песни: Trapped Under Ice
Просмотров: 2490
Прислал: xAL (xal@akkords.ru)




    
intro solo
----------
  (feedback)                                                                 
-------------------|--------------------|--------------------|------------------------|
-------------------|--------------------|--------------------|------------------------|
-------------------|--11----------------|--12----------------|--14--------17----16----|
-------------------|--11----------------|--12----------------|--14--------17----16----|
--2----------------|--9-----------------|--10----------------|--12--------15----14----|
-------------------|--------------------|--------------------|------------------------|

-------------------|--------------------|------------------------|
-------------------|--------------------|------------------------|
--9----------------|--12----------------|--14--------------------|
--9----------------|--12----------------|--14--------------------|
--7----------------|--10----------------|--12/-----19--19~~~-----|
-------------------|--------------------|------------------------|

------14-----14----14-----14-----14----14-|
--17b-----17b---17b---17b-----17b---17----|
------------------------------------------|
------------------------------------------|
------------------------------------------|
------------------------------------------|

--17h14-14-14-17h14-------------------------------|----------------------------|
--------------------17-14-14-14-17h14-------------|--17----17----17----17---17-|
--------------------------------------16-14-14-14-|--16b---16b---16b---16b--16r|
--------------------------------------------------|----------------------------|
--------------------------------------------------|----------------------------|
--------------------------------------------------|----------------------------|

----------------------14--|--18-16-14-12-15-14-12-10-14-12-10-9-12-12-10-9/7-9-|
--------14--17b---17------|----------------------------------------------------|
--------14----------------|----------------------------------------------------|
--------------------------|----------------------------------------------------|
--------------------------|----------------------------------------------------|
--------------------------|----------------------------------------------------|

--10-9-7-7/5-9-9-7-5-5/4-7-7-5-4-2-5-4-2-0-5h|
---------------------------------------------|
---------------------------------------------|
---------------------------------------------|
---------------------------------------------|
---------------------------------------------|

--4h2h0-5h4h2h0-5h4h2h0-2h0---------------------|--------------------|
----------------------------3h2h0-5h2h0-0-2h3h0-|--------------------|
------------------------------------------------|--0--2--------------|
------------------------------------------------|--------------------|
------------------------------------------------|--------------------|
------------------------------------------------|--------------------|


middle solo
-----------

----------------------------------|-----------------------|
----------------------------------|-----12------------17--|
--3h0h2h0h2h0h2h0h2h0h2h0h2h0h2h0-|--0--------------------|
----------------------------------|-----------------------|
----------------------------------|-----------------------|
----------------------------------|-----------------------|

-----------------------------------------------------14-|
--18h14-18h14-18h17h14----18h14-17h14-14-14-17h14-14----|
-----------------------16-------------------------------|
--------------------------------------------------------|
--------------------------------------------------------|
--------------------------------------------------------|

--17-17-16-16-14-14-----------------------------------------|
--------------------17-17-16-16-14-14-----------------------|
--------------------------------------16-14----14-----------|
--------------------------------------------16--------------|
--------------------------------------------------16--12----|
------------------------------------------------------------|

-------------------------------------------------|--------------------------|

Продолжаем грести бабос на ботах в Telegram.
Только в этот раз есть вариант автоматизировать это дело, привлекая рефералов. Вы можете заработать если »

-------------------------------------------------|--17----17----17----17----| ------------------------------------------14-16--|--16b---16b---16b---16b---| ------------------14-14-16h14----16-16-16--------|--------------------------| --------12-12/16--------------16-----------------|--------------------------| --12h14------------------------------------------|--------------------------| ------------------------------------|--------------------------| ------------------------------------|----------------17b-------| ------14-14-14/-----14-14/------14--|--------14----------------| --16------------16----------16------|---16-------14------------| ------------------------------------|--------------------------| ------------------------------------|--------------------------| last solo --------- --19h17h14-19h17h14----14-19h17h14-19-19h17h14----14-| --------------------17-------------------------17----| -----------------------------------------------------| -----------------------------------------------------| -----------------------------------------------------| -----------------------------------------------------| --19h17h14-19-19h17h14----14-19b---------14-| -----------------------17----------0/-18----| -----------------------------------0--------| --------------------------------------------| --------------------------------------------| --------------------------------------------| --17h14----14-17h14-------------------------------| --------17----------17-14-14-14-17h14-------------| --------------------------------------16-14-14-14-| --------------------------------------------------| --------------------------------------------------| --------------------------------------------------| --12----12---12-12--------9--| --12b---12b--12b12b---10-----| -----------------------------| -----------------------------| -----------------------------| -----------------------------| --12-12h10h9----9h10h9------12h10h9------12h10h9------| -------------12--------12h9---------12h9---------12h9-| ------------------------------------------------------| ------------------------------------------------------| ------------------------------------------------------| ------------------------------------------------------| --12h10h9----------------------------------| -------------9----10-12h9------------------| ----------12---11---------11-9-------------| -------------------------------11-9--------| ------------------------------------11-9---| -------------------------------------------| -------------------------------------------------------------------------------- -------------------------------------------------------------------------------- -----16-16-16-16-16-16-16-16-------16-16-16-16-16-16-16-16-16-16-16-16-18-18-18- -----------------------------16h18---------------------------------------------- -------------------------------------------------------------------------------- --19---------------------------------------------------------------------------- --------------------------------------16-16-16-16-16-16-16-16-16-16-16-16-17-19- --19-19-19-19-19-19-19-19-19-19-19-19------------------------------------------- -------------------------------------------------------------------------------- -------------------------------------------------------------------------------- -------------------------------------------------------------------------------- --------------------------------------------------------------------------------

поиск лекарств
список лекарств






О сайтеАккордыХит-парадПоискУроки ФорумыИщу песню
ПрограммыСвежачок-сПодпискаСтатьи
Яндекс.Метрика